Oops, an error
Loading. Please wait.

Nothing To Gein bass

version 2
version 2

Whole song

Interactive

533 views 1 this week
no commentswrite comment
1 2 3 4 5
2 more votes to show rating
add to favorites
×
Save as Personal and add changes to this tab that will be seen only by you. Learn more ›
×
You can save this tab as Personal to edit and correct it or add notes. All changes will be seen only by you. Learn more »
launch autoscroll
font size
0
reset
guitar tuner
edit
Autoscroll
slow
fast
+/-
esc
set tempo
stop
-----------------------------------------------------------------------------------------------
  
  Artist - MuDvAyNe
  Album  - L.D.50 (2000)
  Song   - Nothing To Gein
  Tabbed - Jakob Jugovic
  Mail   - jakobjugovic@gmail.com
  Year   - 2009

-----------------------------------------------------------------------------------------------

  TUNING:

  G
  D
  A
  E
  B

  p - pull
  h - hammer on
  / - slide upwards
  \ - slide downwards
  x - ghost note
  X - left hand ghost note
  S - slapping 
  F - 'fingerslapping'
  T - tapping - {#} base-note
  P - popping
  ~ - vibrato
  o - 1/4 (timescale)

-----------------------------------------------------------------------------------------------


  INTRO:

    o . . . o . . . o . . . o . . . o . . . o . . . o . . . o . . .
G |-----------------------------------------------------------------|
D |-----------------------------------------------------------------|
A |-----------------------------------------------------------------|
E |-----------------------------------------------------------------|
B |-3-0-0-2-0-0-2-3-6-6-6-6-6-6-6-6-3-3-3-3-3-3-5-3-2-2-2-2-2-2-2-0-|

  or only

    o . . . o . . . o . . . o . . . o . . . o . . . o . . . o . . .
G |-----------------------------------------------------------------|
D |-----------------------------------------------------------------|
A |-----------------------------------------------------------------|
E |-----------------------------------------------------------------|
B |-0---------------6---------------3---------------2---------------|

  then

    o . . . o . . . o . . . o . . . o . . . o . . . o . . . o . . .
G |-----------------------9---------------9-------------------------|
D |---------------9-7---------7-------------------------------------|
A |-----------7/9-------------------10--------10----9-----10--------|
E |-----------------------------------------------------------9-9\--|
B |-0---------------------------------------------------------------|


    o . . . o . . . o . . . o . . . o . . . o . . . o . . . o . . .
G |-----------------------9---------7---6-7---------6--6--7--9------|
D |---------------9-7---------7-------9-----------------------------|
A |-----------7/9---------------------------------------------------|
E |-7---------------------------------------------------------------|
B |-----------------------------------------------------------------|


  CHORUS:

    o . . . o . . . o . . . o . . . o . . . o . . . o . . . o . . .
G |-----------------------------------------------------------------|
D |-----------------------------------------------------------------|
A |---------------------------------------5-5---------------4-5-5---|
E |-----------------------------------------------------------------|
B |-3-0-0-2-0-0-2-3-6-6-6-6-6-6-6-6-3-3-3-----3-5-3-2-2-2-2---------|
    F F F F F F F F F F F F F F F F F F F     F F F F F F F


    o . . . o . . . o . . . o . . . o . . . o . . . o . . . o . . .
G |-------------------------------------------------------4---------|
D |---------------------------------------6-------------3---3-------|
A |-------------------------------------5-----5-------4-------4-----|
E |---------------------------------------------4-------------------|
B |-3-0-0-2-0-0-2-3-6-6-6-6-6-6-6-6-3-3-----------3-2-----------2-0-|
    F F F F F F F F F F F F F F F F F F


    o . . . o . . . o . . . o . . . o . . . o . . . o . . . o . . .
G |-------------------------------------------------6/7\6/7\6/7\----|
D |-----------------------------------------------------------------|
A |---------------------------------------5-5-5/6\5-4/5\4/5\4/5\----|
E |-----------------------------------------------------------------|
B |-3-0-0-2-0-0-2-3-6-6-6-6-6-6-6-6-3-3-3---------------------------|
    F F F F F F F F F F F F F F F F F F F


  VERSE:

    o . . . o . . . o . . . o . . . o . . . o . . . o . . . o . . . o . . . o . .
G |---------------------------------------------------------------------13--------|
D |-----------6-----------------------------------6--------------------12---------|
A |---5----/5-------------------5---8-----5----/5------------8-----11-------------|  x4
E |/4-----------------------------7---7-4---------------4-4/7--7/10--10-----------|
B |---------------0---0---x-0/6-----------------------1/--------------------------|


  PRE:

    o . . . o . . . o . . . o . . . o . . . o . . . o . . . o . . .
G |---------------1---------------1---------------1-----------------|
D |-----------------------------------------------------------------|
A |-----------------------------------------------------------------|
E |-----------------------------------------------------------------|
B |-200-0-200-0-x---0-0-0-200-x-----0-0-0-200-x-----0-0-0-200-------|
    SpS S SpS S S P SpS S SpS S S P SpS S SpS S S P SpS S SpS 


  VERSE: (first 2 times rest)

    o . . . o . . . o . . . o . . . o . . . o . . . o . . . o . . . o . . . o . .
G |---------------------------------------------------------------------13--------|
D |-----------6-----------------------------------6--------------------12---------|
A |---5----/5-------------------5---8-----5----/5------------8-----11-------------|  x2
E |/4-----------------------------7---7-4---------------4-4/7--7/10--10-----------|
B |---------------0---0---x-0/6-----------------------1/--------------------------|


  PRE:

    o . . . o . . . o . . . o . . . o . . . o . . . o . . . o . . .
G |---------------1---------------1---------------1-----------------|
D |-----------------------------------------------------------------|
A |-----------------------------------------------------------------|
E |-----------------------------------------------------------------|
B |-200-0-200-0-x---0-0-0-200-x-----0-0-0-200-x-----0-0-0-200-------|
    SpS S SpS S S P SpS S SpS S S P SpS S SpS S S P SpS S SpS 


  CHORUS:

    o . . . o . . . o . . . o . . . o . . . o . . . o . . . o . . .
G |-----------------------------------------------------------------|
D |-----------------------------------------------------------------|
A |---------------------------------------5-5---------------4-5-5---|
E |-----------------------------------------------------------------|
B |-3-0-0-2-0-0-2-3-6-6-6-6-6-6-6-6-3-3-3-----3-5-3-2-2-2-2---------|
    F F F F F F F F F F F F F F F F F F F     F F F F F F F

    o . . . o . . . o . . . o . . . o . . . o . . . o . . . o . . .
G |-------------------------------------------------------4---------|
D |---------------------------------------6-------------3-----3-----|
A |-------------------------------------5-----5-------4--------4\---|
E |---------------------------------------------4-------------------|
B |-3-0-0-2-0-0-2-3-6-6-6-6-6-6-6-6-3-3-----------3-2---------------|
    F F F F F F F F F F F F F F F F F F

    o . . . o . . . o . . . o . . . o . . . o . . . o . . . o . . .
G |-----------------------------------------------------------------|
D |-----------------------------------------------------------------|
A |---------------------------------------5-5---------------4-5-5---|
E |-----------------------------------------------------------------|
B |-3-0-0-2-0-0-2-3-6-6-6-6-6-6-6-6-3-3-3-----3-5-3-2-2-2-2---------|
    F F F F F F F F F F F F F F F F F F F     F F F F F F F

    o . . . o . . . o . . . o . . . o . . . o . . . o . . . o . . .
G |-------------------------------------------------------4---------|
D |---------------------------------------6-------------3-----3-----|
A |-------------------------------------5-----5-------4--------4\---|
E |---------------------------------------------4-------------------|
B |-3-0-0-2-0-0-2-3-6-6-6-6-6-6-6-6-3-3-----------3-2---------------|
    F F F F F F F F F F F F F F F F F F


  BRIDGE:

3/8 o . . o . . o . . o . . 
G |-------------------------|
D |-------------------------|
A |-------------------------|  x3
E |-------------------------|
B |-----------0-----------0-|
              S           S


9/8 o . . . o . . . o . . . o . . . o .
G |-----------------------------4-----7-|
D |-------------------------------------|
A |---------------------------02--2-0---|  x4
E |-------------------------------------|
B |-0-0-0-0-0-0---0---0-0-0-0-----------|
    S S S S S S   S   S S S S ShP S S P


5/4 o . . . o . . . o . . . o . . . o . . .
G |-------------------------4---------5---7-|
D |-------------------------------3---------|
A |---2-----2-----2-----2-02--2-0---3---5---|  x2
E |-----------------------------------------|
B |-0---0-x---0-x---0-x---------------------|
    S P S S P S S P S S P ShP S S P S P S P


9/8 o . . . o . . . o . . . o . . . o . 
G |-----------------------------4-----7-|
D |-------------------------------------|
A |---------------------------02--2-0---|  x4
E |-------------------------------------|
B |-0-0-0-0-0-0---0---0-0-0-0-----------|
    S S S S S S   S   S S S S ShP S S P


  CHORUS:

    o . . . o . . . o . . . o . . . o . . . o . . . o . . . o . . .
G |-----------------------------------------------------------------|
D |-----------------------------------------------------------------|
A |---------------------------------------5-5---------------4-5-5---|
E |-----------------------------------------------------------------|
B |-3-0-0-2-0-0-2-3-6-6-6-6-6-6-6-6-3-3-3-----3-5-3-2-2-2-2---------|
    F F F F F F F F F F F F F F F F F F F     F F F F F F F


    o . . . o . . . o . . . o . . . o . . . o . . . o . . . o . . .
G |-------------------------------------------------------4---------|
D |---------------------------------------6-------------3-----3-----|
A |-------------------------------------5-----5-------4--------4\---|
E |---------------------------------------------4-------------------|
B |-3-0-0-2-0-0-2-3-6-6-6-6-6-6-6-6-3-3-----------3-2---------------|
    F F F F F F F F F F F F F F F F F F


    o . . . o . . . o . . . o . . . o . . . o . . . o . . . o . . .
G |-----------------------------------------------------------------|
D |-----------------------------------------------------------------|
A |---------------------------------------5-5---------------4-5-5---|
E |-----------------------------------------------------------------|
B |-3-0-0-2-0-0-2-3-6-6-6-6-6-6-6-6-3-3-3-----3-5-3-2-2-2-2---------|
    F F F F F F F F F F F F F F F F F F F     F F F F F F F


    o . . . o . . . o . . . o . . . o . . . o . . . o . . . o . . .
G |-----------------------------------------------------------------|
D |-----------------------------------------------------------------|
A |-----------------------------------------------------------------|
E |-----------------------------------------------------------------|
B |-0---------------------------------------------------------------|


  OUTRO:

    o . . . o . . . o . . . o . . . o . . . o . . . o . . . o . . .
G |-----------------------9---------------9-------------------------|
D |---------------9-7---------7-------------------------------------|
A |-----------7/9-------------------10--------10----9-----10--------|
E |-----------------------------------------------------------9-9\--|
B |-0---------------------------------------------------------------|


    o . . . o . . . o . . . o . . . o . . . o . . . o . . . o . . .
G |-----------------------9---------7---6-7---------6--6--7--9------|
D |---------------9-7---------7-------9-----------------------------|
A |-----------7/9---------------------------------------------------|
E |-7---------------------------------------------------------------|
B |-----------------------------------------------------------------|



            
            
Suggest correction
Creating personal tab
Creating personal tab
You can edit any tab online and save it as your Personal.

You can edit, replace or remove any tab part or add personal notes – all changes will be seen only by you.

Personal tabs can be accessed anytime from any device, even offline.
Learn more »
Give kudos to tab author, rate the tab!
1 2 3 4 5
comments
print report bad tab
guest
You may want to rate the tab now too:
select rating
Wanna post a correction for this tab? Suggest correction