Oops, an error
Loading. Please wait.

Prod bass

version 2
version 2

Whole song

Interactive

443 views 6 this week
no commentswrite comment
1 2 3 4 5
3 more votes to show rating
add to favorites
×
Save as Personal and add changes to this tab that will be seen only by you. Learn more ›
×
You can save this tab as Personal to edit and correct it or add notes. All changes will be seen only by you. Learn more »
launch autoscroll
font size
0
reset
guitar tuner
edit
Autoscroll
slow
fast
+/-
esc
set tempo
stop
-----------------------------------------------------------------------------------------------
  
  Artist - MuDvAyNe
  Album  - L.D.50 (2000)
  Song   - Prod
  Tabbed - Jakob Jugovic
  Mail   - jakobjugovic@gmail.com
  Year   - 2009

-----------------------------------------------------------------------------------------------

  TUNING:

  G
  D
  A
  E
  B

  p - pull
  h - hammer on
  / - slide upwards
  \ - slide downwards
  x - ghost note
  X - left hand ghost note
  S - slapping 
  F - 'fingerslapping'
  T - tapping - {#} base-note
  P - popping
  ~ - vibrato
  o - 1/4 (timescale)

-----------------------------------------------------------------------------------------------


  VERSE:

    o . . . o . . . o . . . o . . .
G |---------------------------------|
D |---------------------------------|
A |---------4p2-------------4---4h5-|  x8
E |---------------------------------|
B |-2-----x-----2-----2---x---------|


    o . . . o . . . o . . . o . . .
G |---------------------------------|
D |---------3---------------3---3h5-|
A |-4-4-4-4---4-4-4-4-4-4-4---------|  x4
E |---------------------------------|
B |---------------------------------|
    F F F F F F F F F F F F F   F

    o . . . o . . . o . . . o . . .
G |---------------------------------|
D |---------------------------------|
A |---------4p2-------------4---4h5-|  x2
E |---------------------------------|
B |-2-----x-----2-----2---x---------|


    o . . . o . . . o . . . o . . .
G |---------------------------------|
D |---------------------------------|
A |-------2-----------2---------2---|
E |---------------------------------|
B |-2-----------2-----------2-------|


    o . . . o . . . o . . . o . . .
G |---------------------------------|
D |---------------------------------|
A |-------4-----------4---------4---|
E |---------------------------------|
B |-3-----------3-----------3-------|
          P

    o . . . o . . . o . . . o . . .
G |---------------------------------|
D |---------------------------------|
A |---------------------------------|  x4 (rest)
E |---------------------------------|
B |---------------------------------|


    o . . . o . . . o . . . o . . .
G |---------------------------------|
D |---------3---------------3---3h5-|
A |-4-4-4-4---4-4-4-4-4-4-4---------|  x3
E |---------------------------------|
B |---------------------------------|
    F F F F F F F F F F F F F   F


    o . . . o . . . o . . . o . . .
G |---------------------------------|
D |---------------------------------|
A |-------------------------5-\-4---|
E |---------------------------------|
B |-2-----0-----2-----0-------------|


  CHORUS:

    o . . . o . . . o . . . o . . . o . . . o . . . o . . . o . . . o . . .
G |-1-----------1-----------1-----------1-----------------------------------|
D |-0-----------0-----------0-----------0-----------------------------------|
A |-------------------------------------------------------------------------|  x3
E |-------------------------------------------------------------------------|
B |-----2-----------2-----------2-----------2-------------------------------|
    P   S       P   S       P   S       P   S


  PRE:

    o . . . o . . . o . . . o . . .
G |---------------------------------|
D |---------------------------------|
A |---------------------------------|  x4
E |---------------------------------|
B |-2---2---------------------------|
    S   S


  VERSE:

    o . . . o . . . o . . . o . . .
G |---------------------------------|
D |---------------------------------|
A |---------4p2-------x-----4---4h5-|  x8
E |---------------------------------|
B |-2---x-x-----2---x-----x---x-----|
    S   S S P   S   S P   S P S P


    o . . . o . . . o . . . o . . .
G |---------------------------------|
D |---------------------------------|
A |-----------4p2-------------4h5---|  x4
E |---------------------------------|
B |-2-2-----x-------2-2-----x-------|
    S S     S P     S S     S P


    o . . . o . . . o . . . o . . .
G |---------------------------------|
D |---------3---------------3-3-3h5-|
A |-4-4-4-4---4-4-4-4-4-4-4---------|  x3
E |---------------------------------|
B |---------------------------------|
    F F F F F F F F F F F F F F F


    o . . . o . . . o . . . o . . .
G |---------------------------------|
D |---------------------------------|
A |-------------------------4---4h5-|
E |---------------------------------|
B |-2-----0-----2-----0-------------|


  CHORUS:

    o . . . o . . . o . . . o . . . o . . . o . . . o . . . o . . . o . . .
G |-1-----------1-----------1-----------1-----------------------------------|
D |-0-----------0-----------0-----------0-----------------------------------|
A |-------------------------------------------------------------------------|  x3
E |-------------------------------------------------------------------------|
B |-----2-----------2-----------2-----------2-------------------------------|
    P   S       P   S       P   S       P   S


  MID PART:

    o . . . o . . . o . . . o . . . o . . . o . . .
G |-------------------------------------------------|
D |-------------------------------------------------|
A |---------4---4-/-5---4-2h4-------------------4-4-|
E |-------------------------------------------------|
B |-0-h-2-------------------------------------------|


    o . . . o . . . o . . . o . . . o . . . o . . .
G |-------------------------------------------------|
D |-------------------------------------------------|
A |-5-----------------------2-h-4---4-------5-------|
E |-------------------------------------------------|
B |-----------------2-------------------------------|


    o . . . o . . . o . . . o . . . o . . . o . . .
G |-------------------------------------------------|
D |-------------------------------------------------|
A |---------4---4-/-5---4-2h4---------------------4-|
E |-------------------------------------------------|
B |-0-h-2-------------------------------------------|


    o . . . o . . . o . . . o . . . o . . . o . . .
G |-------------------------------------------------|
D |-0-h-2-------------------------------------------|
A |---------4---------------2-h-4---4-------5-------|
E |-------------------------------------------------|
B |-----------------2-------------------------------|


    o . . . o . . . o . . . o . . . o . . . o . . .
G |-------------------------------------------------|
D |-------------------------------------------/-9---|
A |-------------------------------------------------|
E |-------------------------------------------------|
B |-2---2---------------2---2---2-------------------|


    o . . . o . . . o . . . o . . . o . . . o . . .
G |-11----------9-----------------------------------|
D |-------\-7---------------------------------------|
A |-------------------------2-h-4---4-------5-------|
E |-------------------------------------------------|
B |-------------------------------------------------|


    o . . . o . . . o . . . o . . . o . . . o . . .
G |-------------------------------------------------|
D |-------------------------------------------------|
A |---------4---4-/-5---4-2h4---------------------4-|
E |-------------------------------------------------|
B |-0-h-2-------------------------------------------|


    o . . . o . . . o . . . o . . . o . . . o . . .
G |-------------------------------------------------|
D |-0-h-2-------------------------------------------|
A |---------4---------------2-h-4---4-------5-------|
E |-------------------------------------------------|
B |-----------------2-------------------------------|


  PRE:

    o . . . o . . . o . . .      _
G |-------------------------|     |
D |-------------------------|     |
A |---------4-------4/5\4---|  x3 |
E |-------------------------|     |
B |-0-h-2-------2-----------|     |
                                  |
                                  |  x4
    o . . . o . . . o . . .       |
G |-----------------2-------|     |
D |-----------------0-------|     |
A |---------4---------------|     |
E |-------------------------|     |
B |-0-h-2-------x-----------|    _|


    o . . . o . . . o . . . o . . .
G |-0-------------------------------|
D |-0-------------------------------|
A |-0-------------------------------|
E |-0-------------------------------|
B |-0-------------------------------|
  - >>>>>>>>>>>>>>>>>>>>>>>>>>>>>>> +  bring volume up from 0 and rest
                       

  HEAVY PART:

    o . . . o . . . o . . . o . . . o . . . o . . . o . . . o . . .      _
G |---------------------------------------------------------7\------|     |
D |-----------------------------------------------------------------|     |
A |---------------------------------------------------------5\------|  x3 |
E |-----------------------------------------------------------------|     |
B |-2---2---2---2---3---2---2---2---2---2---3---2---2---x-----------|     |
    F   F   F   F   F   F   F   F   F   F   F   F   F   S   P             |
                                                                          |  x2
                                                                          |
    o . . . o . . . o . . . o . . . o . . . o . . . o . . . o . . .       |
G |-------------------------------------------------2---2-----------|     |
D |-------------------------------------------------0---0-----------|     |
A |-----------------------------------------------------------------|     |
E |-----------------------------------------------------------------|     |
B |-2---2---2---2---3---2---2---2---2---2---3---2-------------------|    _|
    F   F   F   F   F   F   F   F   F   F   F   S


  SOFT PART:

    o . . . o . . . o . . . o . . . o . . . o . . . o . . . o . . .
G |-----------------9\------------------------------9---------------|
D |/11------------------------9/11----------9-h-11------9-/-11--\---|
A |---------9-h-11--------------------------------------------------|
E |-----------------------------------------------------------------|
B |-----------------------------------------------------------------|


    o . . . o . . . o . . . o . . . o . . . o . . . o . . . o . . .
G |-----------------9-\---------------------------------11--\-------|
D |---------------------------9/11------9-h-11----------11--\-------|
A |-4---/---9-h-11--------------------------------------------------|
E |-----------------------------------------------------------------|
B |-----------------------------------------------------------------|


    o . . . o . . . o . . . o . . . o . . . o . . . o . . . o . . .
G |-----------------9-\-----------------------------9---------------|
D |---------------------------9/11----------9-h-11------9-h-11--\---|
A |-4---/---9-h-11--------------------------------------------------|
E |-----------------------------------------------------------------|
B |-----------------------------------------------------------------|


    o . . . o . . . o . . . o . . . o . . . o . . . o . . . o . . .
G |-----------------9-\---------------------13------------------11--|
D |---------------------------9/11------------------14--------------|
A |-4---/---9-h-11--------------------------------------12\-11------|
E |-----------------------------------------------------------------|
B |-----------------------------------------------------------------|


    o . . . o . . . o . . . o . . . o . . . o . . . o . . . o . . .
G |-----------------9-\-----------------------------9---------------|
D |---------------------------9/11----------9-h-11------9-/-11--\---|
A |-4---/---9-h-11--------------------------------------------------|
E |-----------------------------------------------------------------|
B |-----------------------------------------------------------------|


    o . . . o . . . o . . . o . . . o . . . o . . . o . . . o . . .
G |-----------------9-\---------------------------------11----------|
D |---------------------------9/11------9-/-11----------11----------|
A |-4---/---9-h-11--------------------------------------------------|
E |-----------------------------------------------------------------|
B |-----------------------------------------------------------------|


    o . . . o . . . o . . . o . . . o . . . o . . . o . . . o . . .
G |-----------------9-\-----------------------------9---------------|
D |---------------------------9/11----------9-h-11------9-h-11--\---|
A |-4---/---9-h-11--------------------------------------------------|
E |-----------------------------------------------------------------|
B |-----------------------------------------------------------------|


    o . . . o . . . o . . . o . . . o . . . o . . . o . . . o . . .
G |-----------------9-\---------------------13----------------------|
D |---------------------------9/11----------------------14-\--------|
A |-4---/---9-h-11----------------------------------12--------------|
E |-----------------------------------------------------------------|
B |-----------------------------------------------------------------|


    o . . . o . . . o . . . o . . . o . . . o . . . o . . . o . . .
G |-------------------------------------------------9---------------|
D |---------------------------9/11----------9-h-11----------9-h-11--|
A |-4---/---9-h-11--------------------------------------------------|
E |-----------------------------------------------------------------|
B |-----------------------------------------------------------------|


    o . . . o . . . o . . . o . . . o . . . o . . . o . . . o . . .
G |-----------------------------------------------------11\-9-\-----|
D |---------------------------9/11------9---------------------------|
A |-4---/---9-h-11--------------------------9-\---------------------|
E |-----------------------------------------------------------------|
B |-----------------------------------------------------------------|


    o . . . o . . . o . . . o . . . o . . . o . . . o . . . o . . .
G |-----------------------------------------------------------------|
D |-----------------------------------------------------------------|
A |-----------------------------------------------------------------|
E |-----------------------------------------------------------------|
B |-0---0-------0-----------0-----------12~~~~~~----12~~12~-----\---|
    S   S       S           S

    o . . . o . . . o . . . o . . . o . . . o . . . o . . . o . . .
G |-9---8-----------------------------------------------------------|
D |-------------9---------------------------------------------------|
A |-------------------------9-----------7-----------6---\---2-------|
E |-----------------------------------------------------------------|
B |-----------------------------------------------------------------|


    o . . . o . . . o . . . o . . . o . . . o . . . o . . . o . . .
G |-----------------9-\-----------------------------9---------------|
D |---------------------------9/11----------9-h-11------9-h-11--\---|
A |-4---/---9-h-11--------------------------------------------------|
E |-----------------------------------------------------------------|
B |-----------------------------------------------------------------|


    o . . . o . . . o . . . o . . . o . . . o . . . o . . . o . . .
G |-----------------9-\---------------------------------11--\-------|
D |---------------------------9/11------9-/-11----------11--\-------|
A |-4---/---9-h-11--------------------------------------------------|
E |-----------------------------------------------------------------|
B |-----------------------------------------------------------------|


    o . . . o . . . o . . . o . . . o . . . o . . . o . . . o . . .
G |-----------------------------------------------------------------|
D |-----------------2-------------------------------2---------------|
A |-4-------2-h-4-----------2-------4-------2-h-4-------2-h-4-------|
E |-----------------------------------------------------------------|
B |-----------------------------------------------------------------|


    o . . . o . . . o . . . o . . . o . . . o . . . o . . . o . . .
G |-----------------------------------------------------------------|
D |-----------------2-----------------------------------------------|
A |-4-------2-h-4-----------2-------4---2-h-4-----------------------|
E |-----------------------------------------------------------------|
B |-------------------------------------------------2---2---2-------|


  HEAVY PART 2:

    o . . . o . . . o . . .
G |-------------1-----------|
D |-------------0-----------|
A |-------------------------|  x10
E |-------------------------|
B |-2---2-----------3---0---|
    S   S       P   S   S


    o . . . o . . . o . . .
G |-------------1-----------|
D |-------------0-----------|
A |-------------------------|  slowly!
E |-------------------------|
B |-2---2-----------3---0---|
    S   S       P   S   S


    o . . . o . . . o . . . o . . . o . . . o . . . o . . . o . . .
G |-----------------------------------------------------------------|
D |-----------------------------------------------------------------|  hold for
A |-----------------------------------------------------------------|  3x then
E |-----------------------------------------------------------------|  rest 1
B |-2---------------------------------------------------------------|
    S


  PRE:

    o . . . o . . . o . . . o . . .
G |---------------------------------|
D |---------------------------------|
A |---------------------------------|  x4
E |---------------------------------|
B |-2-2-----------------------------|
    S S


  VERSE:

    o . . . o . . . o . . . o . . .
G |---------------------------------|
D |---------------------------------|
A |---------4p2-------x-----4---4h5-|  x2
E |---------------------------------|
B |-2---x-x-----2---x-----x---x-----|
    S   S S P   S   S P   S P S P



    o . . . o . . . o . . . o . . .
G |---------------------------------|
D |---------3---------------3-3-3h5-|
A |-4-4-4-4---4-4-4-4-4-4-4---------|
E |---------------------------------|
B |---------------------------------|
    F F F F F F F F F F F F F F F


    o . . . o . . . o . . . o . . .
G |---------------------------------|
D |---------3-----------------------|
A |-4-4-4-4---4-4-4-4-4-4-4-4---4h5\|
E |---------------------------------|
B |---------------------------------|
    F F F F F F F F F F F F F   F



  CHORUS:

    o . . . o . . . o . . . o . . . o . . . o . . . o . . . o . . . o . . .
G |-1-----------1-----------1-----------1-----------------------------------|
D |-0-----------0-----------0-----------0-----------------------------------|
A |-------------------------------------------------------------------------|
E |-------------------------------------------------------------------------|
B |-----2-----------2-----------2-----------2-------------------------------|
    P   S       P   S       P   S       P   S


    o . . . o . . . o . . . o . . . o . . . o . . . o . . . o . . . o . . .
G |-1-----------1-----------1-----------1---------------------------x-------|
D |-0-----------0-----------0-----------0-----------------------------------|
A |-------------------------------------------------------------------------|
E |-------------------------------------------------------------------------|
B |-----2-----------2-----------2-----------2---------------0-----x---x-0---|
    P   S       P   S       P   S       P   S


    o . . . o . . . o . . . o . . . o . . . o . . . o . . . o . . . o . . .
G |-1-----------1-----------1-----------1-----------------------------------|
D |-0-----------0-----------0-----------0-----------------------------------|
A |-------------------------------------------------------------------------|
E |-------------------------------------------------------------------------|
B |-----2-----------2-----------2-----------2-------------------------------|
    P   S       P   S       P   S       P   S



            
            
Suggest correction
Creating personal tab
Creating personal tab
You can edit any tab online and save it as your Personal.

You can edit, replace or remove any tab part or add personal notes – all changes will be seen only by you.

Personal tabs can be accessed anytime from any device, even offline.
Learn more »
Give kudos to tab author, rate the tab!
1 2 3 4 5
comments
print report bad tab
guest
You may want to rate the tab now too:
select rating
Wanna post a correction for this tab? Suggest correction