Oops, an error
Loading. Please wait.

Pushing Through bass

version 2
version 2

Whole song

Interactive

348 views 1 this week
1 commentread comment
1 2 3 4 5
2 more votes to show rating
add to favorites
×
Save as Personal and add changes to this tab that will be seen only by you. Learn more ›
×
You can save this tab as Personal to edit and correct it or add notes. All changes will be seen only by you. Learn more »
launch autoscroll
font size
0
reset
guitar tuner
edit
Autoscroll
slow
fast
+/-
esc
set tempo
stop
Author
Difficulty
Mudvayne - Pushing Through

tuning (low ot high) - G C G C F

Riff 1 x1
   W         H   Essssss   ssE ssssS ssssss S  ssE sssss ssssss
|----------|-------------|-----XX------------|-----XX-----------|
|----------|-------------|-----XX------------|-----XX-----------|
|4---------|----------33-|-----XX------------|-----XX--------33-|
|4---------|------3202---|-02--XX02--X02520--|-02--XX022/7775---|
|----------|-------------|-------------------|------------------|

  ssE ssssS ssssss S  ssssssssssssssss   ssssssssssssssss
|-----XX------------|------------------|------------------|
|-----XX------------|------------------|------------------|
|-----XX------------|-----33----33-----|-----33----33-----|
|-02--XX02--X02520--|-3202--3202--0232-|-3202--3202--0230-|
|-------------------|------------------|------------------|

Riff 2 x3
  ssssssss H     ssssssss S sssssss
|-------------|---------------------|
|-------------|---------------------|
|-------------|---------------------|
|-22222222----|-/66666666\-/6666554-|
|-------------|---------------------|

Fill 1 x1
  ssssssss Q Se.      ssssssss S sssssss    H
|------------------|---------------------|------|
|------------------|---------------------|------|
|------------------|---------------------|2-----|
|-22222222----18\--|-/66666666\-/6666554-|4-----|
|------------------|---------------------|------|

Riff 3 x2
   ssE ssssS ssssss S  ssE sssss ssssss   ssE ssssS ssssss S  ssssssssssssssss
|------XX------------|-----XX-----------|-----XX------------|------------------|
|------XX------------|-----XX-----------|-----XX------------|------------------|
|4-----XX------------|-----XX--------33-|-----XX------------|-----33----33-----|
|4-02--XX02--X02520--|-02--XX022/7775---|-02--XX02--X02520--|-3202--3202--0230-|
|--------------------|------------------|-------------------|------------------|

Riff 2 x3

Fill 1 x1

Riff 3 x1

Fill 2 x1
  ssE ssssS ssssss S  ssE sss e  sst tsse   ssE ssssS ssssss S
|-----XX------------|-----XX-----7-----6--|-----XX------------|
|-----XX------------|-----XX--------------|-----XX------------|
|-----XX------------|-----XX-/5---50h44-3-|-----XX------------|
|-02--XX02--X02520--|-02--XXX-------------|-02--XX02--X02520--|
|-------------------|---------------------|-------------------|
                            s s  pss  sps

  ssssssssssssssss    ssssssssssssssssQ
|------------------|---------------------|
|------------------|---------------------|
|-----33----33-----|5-----33----33---3---|
|-3203--3202--0232-|4-3202--3202--023----|
|------------------|---------------------|

Riff 4 x1
   q    e e e Sss s e    e  se.  e    e sss s e   q    e e e Sss s e
|---------------------|-------------------------|--------------------|
|--4\--/7-5-4--22h4-4-|-/11-X7--(7)\-/7-X55h7-5-|-4\--/7-5-4--22h4-4-|
|4--------------------|-------------------------|--------------------|
|4-4\--/7-5-4--22h4-4-|-/11-X7--(7)\-/7-X55h7-5-|-4\--/7-5-4--22h4-4-|
|---------------------|-------------------------|--------------------|

   e  se.  e    sssss s e  S sss e e e S ss s e    e  se.  e    e sss s e
|-------------------------|---------------------|-------------------------|
|-/11-X7--(7)\-/7XX55h7-5-|--445/7-5-4---22h4-4-|-/11-X7--(7)\-/7-X55h7-5-|
|-------------------------|---------------------|-------------------------|
|-/11-X7--(7)\-/7XX55h7-5-|--445/7-5-4---22h4-4-|-/11-X7--(7)\-/7-X55h7-5-|
|-------------------------|---------------------|-------------------------|

  q    e e e Sss s e    e  se.  e    e sss s e  S sss ssss e sss s e   q Q H
|--------------------|-------------------------|---------------------|---------|
|-4\--/7-5-4--22h4-4-|-/11-X7--(7)\-/7-X55h7-5-|--445/7755-4-422h4-4-|---------|
|--------------------|-------------------------|---------------------|-4\------|
|-4\--/7-5-4--22h4-4-|-/11-X7--(7)\-/7-X55h7-5-|--445/7755-4-422h4-4-|---------|
|--------------------|-------------------------|---------------------|-4\------|

Riff 5 x1
  ssE sssssss e sss   e. ttssssssssss e   e Sttsssssss e sss   e. ttssssssssss e
|---------------6---|---------------3---|----------------6---|---------------3---|
|-----2----2--------|------5----0-------|------2----2--------|------5----0-------|
|------------/4--X--|------------11X----|-------------/4--X--|------------11X----|
|-22---X22X-X-----5-|-5--XX-X55X------3-|-2--XX-X22X-X-----5-|-5--XX-X55X------3-|
|-------------------|-------------------|--------------------|-------------------|
  ss  pssssps s pss   s  sspsssspsssp s   s  sspssssps s pss   s  sspsssspsssp s

  ssSttsssssss e sss   e. ttssssssssssss   ssSttsssssss e sss   ssSttssssssssss e
|----------------6---|---------------3---|----------------6---|---------------3---|
|------2----2--------|------5----0-------|------2----2--------|------5----0-------|
|-------------/4--X--|------------11X----|-------------/4--44-|------------11X----|
|-22-XX-X22X-X-----5-|-5--XX-X55X-----33-|-22-XX-X22X-X-------|-55-XX-X55X------3-|
|--------------------|-------------------|--------------------|-------------------|

Riff 6 x1
 S sss e e eSss s e    e se.  e    e sss s e   q    e e e sss s e
|-------------------|------------------------|--------------------|
|--223/5-3-2-00h2-2-|-/9-X5--(5)\-/5-X33h5-3-|-2\--/5-3-2-X00h2-2-|
|-------------------|------------------------|--------------------|
|--223/5-3-2-00h2-2-|-/9-X5--(5)\-/5-X33h5-3-|-2\--/5-3-2-X00h2-2-|
|-------------------|------------------------|--------------------|

   e se.  e    sssss s e  S sss e e e sss s e    e se.  e    e sss s e
|------------------------|--------------------|------------------------|
|-/9-X5--(5)\-/5XX33h5-3-|--223/5-3-2-X00h2-2-|-/9-X5--(5)\-/5-X33h5-3-|
|------------------------|--------------------|------------------------|
|-/9-X5--(5)\-/5XX33h5-3-|--223/5-3-2-X00h2-2-|-/9-X5--(5)\-/5-X33h5-3-|
|------------------------|--------------------|------------------------|

  q    e e e sss s e    e se.  e    e sss s e     ssssssss
|--------------------|------------------------|--/99999999/-|
|-2\--/5-3-2-X00h2-2-|-/9-X5--(5)\-/5-X33h5-3-|---XXXXXXXX--|
|--------------------|------------------------|2-/77777777/-|
|-2\--/5-3-2-X00h2-2-|-/9-X5--(5)\-/5-X33h5-3-|4------------|
|--------------------|------------------------|-------------|

Riff 3 x1

Fill 3 x1
  ss Essss SssssssS   ss Esss e  s s ss ss    ss Essss SssssssS   ssssssssssssssss
|-----XX------------|-----XX----------------|-------------------|------------------|
|-----XX------------|-----XX----------------|-----XX------------|------------------|
|-----XX------------|-----XX----------------|-----XX------------|-----33----33-----|
|-02--XX02--X02520--|-02--XXX/12-1212011010-|-02--XX02--X02520--|-3202--3202--0232-|
|-------------------|-----------------------|-------------------|------------------|

Riff 3 x1

Fill 4 x1
  ssssssssssssssss   ssssssssssssssss   ssssssssssssssss   W
|------------------|------------------|------------------|--------||
|------------------|------------------|------------------|--------||
|-----33----33-----|-----33----33-----|-----33----33---3-|--------||
|-3202--3202--0232-|-3202--3202--0232-|-3202--3202--023--|--------||
|------------------|------------------|------------------|--------||

            
            
Suggest correction
Creating personal tab
Creating personal tab
You can edit any tab online and save it as your Personal.

You can edit, replace or remove any tab part or add personal notes – all changes will be seen only by you.

Personal tabs can be accessed anytime from any device, even offline.
Learn more »
Give kudos to tab author, rate the tab!
1 2 3 4 5
comments
print report bad tab
1 comment total.
0 reply
morbid_vampire 10 Apr 23, 2008 05:03 PM

spot on i mean **** u didnt miss a thing. ry-know truly is a god and u my friend r a ****ing awesome tabber

guest
You may want to rate the tab now too:
select rating
Wanna post a correction for this tab? Suggest correction