Oops, an error
Loading. Please wait.

Lovers Eyes tab

version 2
version 2

Whole song

77,519 views 75 this week
1 commentread comment
1 2 3 4 5
x 64
add to favorites
×
Save as Personal and add changes to this tab that will be seen only by you. Learn more ›
×
You can save this tab as Personal to edit and correct it or add notes. All changes will be seen only by you. Learn more »
launch autoscroll
font size
0
reset
how to read this tab
guitar tuner
edit
Autoscroll
slow
fast
+/-
esc
set tempo
stop
Open D Tuning

Here is a link to a video of me playing the song
http://www.youtube.com/watch?v=NkadPP6yeqw&feature=plcp


[Intro]

D |-----------------------------------------------------------------------|
A |-----------------------------------------------------------------------|
F#|-----------------------------------------------------------------------|
D |-------0-------0-------2---0---2/4-------4-------4-------4/5---4---4/7-|
A |---0-------0-------0-----------------0-------0-------0-----------------|
D |-0---0---0---0---0---0---0---0-----0---0---0---0---0---0-----0---0-----|

D |-----------------------------------------------------------------------|
A |-----------------------------------------------------------------------|
F#|-----------------------------------------------------------------------|
D |-------7-------7-------5---4---2------2-------2/4-------4\2-------2p0--| 2x
A |---0-------0-------0---------------0------0---------0---------0--------|
D |-0---0---0---0---0---0---0---0---0---0--0---0-----0---0-----0---0------|


[Verse]

D |-----------------------------------------------------------------------|
A |-----------------------------------------------------------------------|
F#|-----------------------------------------------------------------------|
D |-------0-------0-------2---0---2/4-------4-------4-------4/5---4---4/7-|
A |---0-------0-------0-----------------0-------0-------0-----------------|
D |-0---0---0---0---0---0---0---0-----0---0---0---0---0---0-----0---0-----|

D |-----------------------------------------------------------------------|
A |-----------------------------------------------------------------------|
F#|-----------------------------------------------------------------------|
D |-------7-------7-------5---4---2-------2-------2-------2------ 2p0-----| 2x
A |---0-------0-------0---------------0-------0-------0-------0-----------|
D |-0---0---0---0---0---0---0---0---0---0---0---0---0---0---0---0---------|


[Instrumental]
(Intro)


[Verse] x2


[1st Chorus]

D |-----------------------------------------------------------------------|
A |-----------------------------------------------------------------------|
F#|-----------------------------------------------------------------------|
D |---0---0---0---0---0---0---0---0---0---0---0---0---0---0---0---0-------| 2x
A |-----------------------------------------------------------------------|
D |-5---5---5---5---0---0---0---0---7---7---7---7---0---0---0---0---------|

D |-----------------------------------------------------------------------|
A |-----------------------------------------------------------------------|
F#|-----------------------------------------------------------------------|
D |---0---0---0---0---0---0---0---0---0---0---0---0---0---0---0---0-------|
A |-----------------------------------------------------------------------|
D |-9---9---9---9---0---0---0---0---7---7---7---7---0---0---0---0---------|

D |----------------------------------------------------0--0-----0--0------|
A |----------------------------------------------------0--0-----0--0------|
F#|----------------------------------------------------0--1-----0--1------|
D |---0---0---0---0---0---0---0---0---0---0---0---0----0--0-----0--0------| 
A |----------------------------------------------------0--2-----0--2------|
D |-5---5---5---5---0---0---0---0---7---7---7---7---0--0--0--0--0--0------|

D |----0--0-----0---------------------------------------------------------|
A |----0--0-----0---------------------------------------------------------|
F#|----0--1-----0---------------------------------------------------------|
D |----0--0-----0---------------------------------------------------------|
A |----0--2-----0---------------------------------------------------------|
D |-0--0--0--0--0---------------------------------------------------------|


[Verse]
(strum the notes you played in the 1st and 2nd verse)


[Verse]

D |--0--0--0---0--0--0--0---0--0--0--0--0--0---0---0---0------------------|
A |--0--0--0---0--0--0--0---0--0--0--0--0--0---0---0---0------------------|
F#|--0--0--0---0--0--0--0---0--0--0--0--0--0---0---0---0------------------|
D |--2--0--2/4-4--5--4--4/7-7--5--4--2--2--2/4-4\2-2p0-0------------------|
A |--0--0--0---0--0--0--0---0--0--0--0--0--0---0---0---0------------------|
D |--0--0--0---0--0--0--0---0--0--0--0--0--0---0---0---0------------------|


[Chorus]

D |--0---------------0---------------0---------------0--------------------|
A |--0---------------0---------------0---------------0--------------------|
F#|--5---------------0---------------7---------------0--------------------|
D |--0---------------0---------------0---------------0--------------------| 2x
A |--0---------------0---------------0---------------0--------------------|
D |--5---------------0---------------7---------------0--------------------|

D |--0---------------0---------------0---------------0--------------------|
A |--0---------------0---------------0---------------0--------------------|
F#|--8---------------0---------------7---------------0--------------------|
D |--0---------------0---------------0---------------0--------------------|
A |--0---------------0---------------0---------------0--------------------|
D |--9---------------0---------------7---------------0--------------------|

D |--0---------------0---------------0---------------0--0-----0--0--------|
A |--0---------------0---------------0---------------0--0-----0--0--------|
F#|--5---------------0---------------7---------------0--1-----0--1--------|
D |--0---------------0---------------0---------------0--0-----0--0--------|
A |--0---------------0---------------0---------------0--2-----0--2--------|
D |--5---------------0---------------7-------------0-0--0--0--0--0--------|

D |----0--0-----0---------------------------------------------------------|
A |----0--0-----0---------------------------------------------------------|
F#|----0--1-----0---------------------------------------------------------|
D |----0--0-----0---------------------------------------------------------|
A |----0--2-----0---------------------------------------------------------|
D |-0--0--0--0--0---------------------------------------------------------|



  "I walk slow..."
D |----0----0----0----0----0----0-----------------------------------------|
A |----0----0----0----0----0----0-----------------------------------------|
F#|----0----7----0----8----5----0-----------------------------------------|
D |----0----0----0----0----0----0-----------------------------------------| 7x
A |----0----0----0----0----0----0-----------------------------------------|
D |----0----7----0----9----5----0-----------------------------------------|

  "Ahh Ahh Ahh"
D |--0--0--0---0--0--0--0---0--0--0--0--0--0---0---0---0------------------|
A |--0--0--0---0--0--0--0---0--0--0--0--0--0---0---0---0------------------|
F#|--0--0--0---0--0--0--0---0--0--0--0--0--0---0---0---0------------------|
D |--2--0--2/4-4--5--4--4/7-7--5--4--2--2--2/4-4\2-2p0-0------------------| 3x
A |--0--0--0---0--0--0--0---0--0--0--0--0--0---0---0---0------------------|
D |--0--0--0---0--0--0--0---0--0--0--0--0--0---0---0---0------------------|



************************************

| p  Pull-off
| /  Slide up
| \  Slide down 

************************************

            
            
Suggest correction
Creating personal tab
Creating personal tab
You can edit any tab online and save it as your Personal.

You can edit, replace or remove any tab part or add personal notes – all changes will be seen only by you.

Personal tabs can be accessed anytime from any device, even offline.
Learn more »
comments
print report bad tab
1 comment total.
-1 reply
bmortimore 119 Oct 04, 2012 05:39 PM

Corrections all the 6's in the intro and verse should be 7's on the 4th string

guest
You may want to rate the tab now too:
select rating
Wanna post a correction for this tab? Suggest correction