Oops, an error
Loading. Please wait.

Snake Eyes tab

version 2
version 2

Whole song

3,455 views 6 this week
2 commentsread comments
1 2 3 4 5
x 6
add to favorites
×
Save as Personal and add changes to this tab that will be seen only by you. Learn more ›
×
You can save this tab as Personal to edit and correct it or add notes. All changes will be seen only by you. Learn more »
launch autoscroll
font size
0
reset
how to read this tab
guitar tuner
edit
Autoscroll
slow
fast
+/-
esc
set tempo
stop
-------------------------------------------------------------------------------
                             Snake Eyes - Mumford and Sons
-------------------------------------------------------------------------------
Tabbed by: Cyapp1
E-mail: Cyapp5200@gmail.com

Tuning:CACGCE
After watching it live, i noticed Marcus was playing it differently from all 
the tabs i had seen online, i realized he has been playing it Open C tuning. 
I tabbed it out in Open C and i believe it is fairly accurate to how he actually
plays is, the only part i am unsure about is the outro, the way i tabbed it is simply 
Winstons outro part except in open C. I think Marcus is playing the chords in a higher 
octave, 

Intro:
         Am               Am6          Am        
e|---------------------------------------------------------------------------|
C|---------------------------------------------------------------------------|
G|-------9-----9-----9-----9h----9h10---10----9----9-------------------------|
C|-----0-----0-----0-----0------0-----0-----0-----0------------------------==|
A|----0-0---0-0---0-0---0-0----0-0---0-0---0-0---0-0-------------------------|
C|---------------------------------------------------------------------------|
      G/C                       G           Em          F   
e|---------------------------------------------------------------------------|
C|---------------------------------------------------------------------------|
G|-------5-----5-----5-----5-----4-----4-----0-----0-----2-----2-----2-----2-|
C|-----0-----0-----0-----0-----0-----0-----0-----0-----0-----0-----0-----0---|
A|---------------------------------------------------------------------------|
C|----7-7---7-7---7-7---7-7---7-7---7-7---4-4---4-4---5-5---5-5---5-5---5-5--|
  
 


 Verse 1:
        Am               Am6          Am        
e|---------------------------------------------------------------------------|
C|---------------------------------------------------------------------------|
G|-------9-----9-----9-----9------9h10----10-----9-----9---------------------|
C|-----0-----0-----0-----0------0-------0-----0-----0------------------------|
A|----0-0---0-0---0-0---0-0----0-0-----0-0---0-0---0-0-----------------------|
C|---------------------------------------------------------------------------|
      G/C                       G           Em          F                        }x2
e|---------------------------------------------------------------------------|
C|---------------------------------------------------------------------------|
G|-------5-----5-----5-----5-----4-----4-----0-----0-----2-----2-----2-----2-|
C|-----0-----0-----0-----0-----0-----0-----0-----0-----0-----0-----0-----0---|
A|---------------------------------------------------------------------------|
C|----7-7---7-7---7-7---7-7---7-7---7-7---4-4---4-4---5-5---5-5---5-5---5-5--|


      Am          G           Em    F
e|------------------------------------------------------------------|
B|------------------------------------------------------------------|
G|-------9-----9-----4-----4-----0-----2-----2-----2 ---------------|
D|-----0-----0-----0-----0-----0-----0-----0-----0------------------|
A|----0-0---0-0-----------------------------------------------------|
E|----------------7-7---7-7---4-4---5-5---5-5---5-5-----------------|

       F-Em    Em
e|-----------------------------------|
B|-----------------------------------|
G|-------2p0-----0-----0-----0-------|
D|-----0-------0-----0-----0---------|
A|-----------------------------------|
E|----5-5-----4-4---4-4---4-4--------|

 Chorus: Single Strum
        F                Am         G                        F
           "It's in the eyes, I can tell you will always be danger"
e|------x----------------x----------x------------------------x-----------------|
B|------x----------------x----------x------------------------x-----------------|
G|------5----------------9----------7------------------------5-----------------|
D|------5----------------9----------7------------------------5-----------------| x2
A|------x----------------x----------x------------------------x-----------------|
E|------5----------------9----------7------------------------5-----------------|



 REPEAT INTRO 

 Verse:         Am               Am6          Am        
e|---------------------------------------------------------------------------|
C|---------------------------------------------------------------------------|
G|-------9-----9-----9-----9------9h10----10-----9-----9---------------------|
C|-----0-----0-----0-----0------0-------0-----0-----0------------------------|
A|----0-0---0-0---0-0---0-0----0-0-----0-0---0-0---0-0-----------------------|
C|---------------------------------------------------------------------------|
      G/C                       G           Em          F                         }x2
e|---------------------------------------------------------------------------|
C|---------------------------------------------------------------------------|
G|-------5-----5-----5-----5-----4-----4-----0-----0-----2-----2-----2-----2-|
C|-----0-----0-----0-----0-----0-----0-----0-----0-----0-----0-----0-----0---| 
A|---------------------------------------------------------------------------|
C|----7-7---7-7---7-7---7-7---7-7---7-7---4-4---4-4---5-5---5-5---5-5---5-5--|

 This part last of the verse is played differently
      Am          G           F
e|------------------------------------------------------|
B|------------------------------------------------------|
G|-------9-----9-----4-----4-----2-----2-----2-----2----|
D|-----0-----0-----0-----0-----0-----0-----0-----0------|
A|----0-0---0-0-----------------------------------------|
E|----------------7-7---7-7---5-5---5-5---5-5---5-5-----|

      Am          G           F                         G/C
e|-----------------------------------------------------------------------------|
B|-----------------------------------------------------------------------------|
G|-------9-----9-----4-----4-----2-----2-----2-----2p0-----0-----0-----0-----0-|
D|-----0-----0-----0-----0-----0-----0-----0-----0-------0-----0-----0-----0---|
A|----0-0---0-0----------------------------------------------------------------|
E|----------------7-7---7-7---5-5---5-5---5-5---5-5-----4-4---4-4---4-4---4-4--|

        F                       G/C
e|-------------------------------------------------------|
B|-------------------------------------------------------|
G|--------2-----2-----2-----2p0----0-----0-----0-----0---|
D|-------0-----0-----0-----0-----0-----0-----0-----0-----|
A|-------------------------------------------------------|
E|------5-5---5-5---5-5---5-5---4-4---4-4---4-4---4-4----|


 Chorus: Single Strum until he says "Danger...", Strumming pattern is D-D-D-DU, Two counts per chord 
                                                                                Four counts on the final F
        F                Am         G                        F (Start strumming)
           "It's in the eyes, I can tell you will always be danger"
e|------x----------------x----------x------------------------x-----------------|
B|------x----------------x----------x------------------------x-----------------|
G|------5----------------9----------7------------------------5-----------------|
D|------5----------------9----------7------------------------5-----------------| 
A|------x----------------x----------x------------------------x-----------------|
E|------5----------------9----------7------------------------5-----------------|

 Verse 3:
        Am               Am6          Am        
e|---------------------------------------------------------------------------|
C|---------------------------------------------------------------------------|
G|-------9-----9-----9-----9------9h10----10-----9-----9---------------------|
C|-----0-----0-----0-----0------0-------0-----0-----0------------------------|
A|----0-0---0-0---0-0---0-0----0-0-----0-0---0-0---0-0-----------------------|       
C|---------------------------------------------------------------------------|
      G/C                       G           Em          F                       }x2
e|---------------------------------------------------------------------------|
C|---------------------------------------------------------------------------|
G|-------5-----5-----5-----5-----4-----4-----0-----0-----2-----2-----2-----2-|
C|-----0-----0-----0-----0-----0-----0-----0-----0-----0-----0-----0-----0---| 
A|---------------------------------------------------------------------------|
C|----5-5---5-5---5-5---5-5---7-7---7-7---4-4---4-4---5-5---5-5---5-5---5-5--|


      Am          G           Em    F
e|------------------------------------------------------------------|
B|------------------------------------------------------------------|
G|-------9-----9-----4-----4-----0-----2-----2-----2 ---------------|
D|-----0-----0-----0-----0-----0-----0-----0-----0------------------|
A|----0-0---0-0-----------------------------------------------------|
E|----------------7-7---7-7---4-4---5-5---5-5---5-5-----------------|

       F       C 
e|-----------------------------------|
B|-----------------------------------|
G|-------2s5-----5-----5-----5-------|
D|-----0-------0-----0-----0---------|
A|-----------------------------------|
E|----5-5-----7-7---7-7---7-7--------|  

  Repeat 2nd Chorus  

   
 Outro- D-D-D-DU One time per Chord
        F   F       Am  Am      G   Em    
e|------x---x-------x---x-------x---x---|
B|------x---x-------x---x-------x---x---|
G|------5---5-------9---9-------7---4---|
D|------5---5-------9---9-------7---4---|
A|------x---x-------x---x-------x---x---|
E|------5---5-------9---9-------7---4---|

        F   F       Am      G       F   F
e|------x---x-------x-------x-------x---x---|
B|------x---x-------x-------x-------x---x---|
G|------5---5-------9-------7-------5---5---|
D|------5---5-------9-------7-------5---5---|
A|------x---x-------x-------x-------x---x---|
E|------5---5-------9-------7-------5---5---|

        F  F       Am  Am      G   Em      F(Single Strum)    
e|------x---x-------x---x-------x---x-------x--|
B|------x---x-------x---x-------x---x-------x--|
G|------5---5-------9---9-------7---4-------5--|
D|------5---5-------9---9-------7---4-------5--|
A|------x---x-------x---x-------x---x-------x--|
E|------5---5-------9---9-------7---4-------5--|


************************************

| /   slide up
| \   slide down
| h   hammer-on
| p   pull-off
| ~   vibrato
| +   harmonic
| x   Mute note
| b   Bend
| pb  Pre-bend
| br  Bend release
| pbr Pre-bend release
| brb Bend release bend

************************************

            
            
Suggest correction
Creating personal tab
Creating personal tab
You can edit any tab online and save it as your Personal.

You can edit, replace or remove any tab part or add personal notes – all changes will be seen only by you.

Personal tabs can be accessed anytime from any device, even offline.
Learn more »
comments
print report bad tab
2 comments total.
0 reply
pablogs4004 10 Sep 28, 2015 11:08 AM

Awesome job!

0 reply
jeroentje321 10 May 25, 2016 02:05 AM

how do you mute all those strings?

guest
You may want to rate the tab now too:
select rating
Wanna post a correction for this tab? Suggest correction