Oops, an error
Loading. Please wait.

There Will Be Time bass

445 views 306 this week
no commentswrite comment
1 2 3 4 5
2 more votes to show rating
add to favorites
×
Save as Personal and add changes to this tab that will be seen only by you. Learn more ›
×
You can save this tab as Personal to edit and correct it or add notes. All changes will be seen only by you. Learn more »
launch autoscroll
font size
0
reset
guitar tuner
edit
Autoscroll
slow
fast
+/-
esc
set tempo
stop
-------------------------------------------------------------------------------
                             There Will Be Time - Mumford and Sons
-------------------------------------------------------------------------------

Tuning: Standard
Difficulty: Novice

[Intro]
G|---------------------------------------------------------------------------|
D|---------------------------------------------------------------------------|
A|---------------------------------------------------------------------------|
E|-0-------4----4\2--2--------2/9------9--9\5--------------------------------|
(Repeat the same for the verse)

[Verse] - Baaba Maal
G|---------------------------------------------------------------------------|
D|---------------------------------------------------------------------------|
A|---------------------------------------------------------------------------| x2
E|-0-------4----4\2--2--------2/9------9--9\5--------------------------------| 

[Chorus] - Mumford
G|---------------------------------------------------------------------------|
D|---------------------------------------------------------------------------|
A|-------------------4------------------------4--------4---------------------|
E|-0--------5-----------------0-------5--------------------------------------|
(The last note on the second string is optional, but it's played just before the verse begins.)

[Verse] - Baaba Maal
G|---------------------------------------------------------------------------|
D|---------------------------------------------------------------------------|
A|---------------------------------------------------------------------------| 
E|-0-------4----4\2--2--------2/9------9--9\5--------------------------------| 

G|---------------------------------------------------------------------------|
D|---------------------------------------------------------------------------|
A|---------------------------------------------------------------------------| 
E|-0-------4----4\2--2--------2/9------9--9\5--------5--5/7------------------| 

[Bridge] - Baaba Maal
G|---------------------------------------------------------------------------|
D|---------------------------------------------------------------------------|
A|-0----0----2----2----4---------4-------------------------------------------| x2
E|---------------------------------------------------------------------------| 

G|---------------------------------------------------------------------------|
D|---------------------------------------------------------------------------|
A|-0----0----2----2----2(hold)-----------------------------------------------|
E|---------------------------------------------------------------------------|

[Verse] - Mumford
G|---------------------------------------------------------------------------|
D|---------------------------------------------------------------------------|
A|---------------------------------------------------------------------------| x2
E|-0-------4----4\2--2--------2/9------9--9\5--------------------------------| 

[Chorus] - Mumford
G|---------------------------------------------------------------------------|
D|---------------------------------------------------------------------------|
A|-------------------4------------------------4--------4(hold)---------------|
E|-0--------5-----------------0-------5--------------------------------------|

[Instrumental]
G|---------------------------------------------------------------------------|
D|---------------------------------------------------------------------------|
A|---------------------------------------------------------------------------|
E|-0-0-0-0-0-0-0-0-4-4-4-4/9-9-9-9\4-4-4-4-4-4-4-4/5-5-5-5-5-5-5-5/9-9-9-9-9-|
 
G|---------------------------------------------------------------------------|
D|---------------------------------------------------------------------------|
A|---------------------------------------------------------------------------| x2
E|-9-9-9-9-9-9-9-9-9-9-9\5-5-5-5-5-5-5-5-5-5-5-5-5-5-5-5---------------------|

[Chorus]
G|---------------------------------------------------------------------------|
D|---------------------------------------------------------------------------|
A|---------------------------4-----4---4--4-----4---4------------------------| x4
E|-0-----0---0--5-----5---5--------------------------------------------------|
(For this part, I play 3 notes per 4 beats, but if you want, you can just play 4)

[Bridge] - Baaba Maal
G|---------------------------------------------------------------------------|
D|---------------------------------------------------------------------------|
A|-0-----0---0--2-----2---2--4-----4---4--4-----4----------------------------| x3
E|---------------------------------------------------------------------------| 

G|---------------------------------------------------------------------------|
D|---------------------------------------------------------------------------|
A|-0-----0---0--2--2--2--2--2--2--2--2---------------------------------------|
E|---------------------------------------------------------------------------|

[Chorus]
G|---------------------------------------------------------------------------|
D|---------------------------------------------------------------------------|
A|---------------------------4*--------4*--4*--4*--4*------------------------| x4
E|-0*--------5*--5*--5*--5*--------------------------------------------------|
(For this part, I match the drums. If you don't quite understand, listen to the song, you can hear it.)

[Outro]
G|---------------------------------------------------------------------------|
D|---------------------------------------------------------------------------|
A|---------------------------4*--------4*--4*--4*--4*------------------------| x2
E|-0*--------5*--5*--5*--5*--------------------------------------------------|
(The outro is basically the same as that last chorus)

************************************

| x   Dead note
| /   Slide up
| \   Slide down

************************************

            
            
Suggest correction
Creating personal tab
Creating personal tab
You can edit any tab online and save it as your Personal.

You can edit, replace or remove any tab part or add personal notes – all changes will be seen only by you.

Personal tabs can be accessed anytime from any device, even offline.
Learn more »
Give kudos to tab author, rate the tab!
1 2 3 4 5
comments
print report bad tab
guest
You may want to rate the tab now too:
select rating
Wanna post a correction for this tab? Suggest correction