Oops, an error
Loading. Please wait.

Beer Pressure tab

version 1
version 1

Whole song

Interactive

1,783 views 1 this week
no commentswrite comment
1 2 3 4 5
2 more votes to show rating
add to favorites
×
Save as Personal and add changes to this tab that will be seen only by you. Learn more ›
×
You can save this tab as Personal to edit and correct it or add notes. All changes will be seen only by you. Learn more »
launch autoscroll
font size
0
reset
how to read this tab
guitar tuner
edit
Autoscroll
slow
fast
+/-
esc
set tempo
stop
Author
Tabbers playing skills
advanced
Municipal Waste - Beer Pressure
The Art Of Partying (2007)
Tabbed by ruker (Varuker@gmail.com)
Standard Tuning EADGBE

--------------
Key:
--------------
.  Palm Mute
h  Hammer-on
p  Pull-off
ph Pinch Harmonic
/  Slide Up
\  Slide Down
--------------


Intro A (0:00)
 Rhythm Left
||----------------------------------------------------------------------|
||----------------------------------------------------------------------|
||----------------------------------------------------------------------|
||-5---------5---4-------------5---8------7------6------5------5-7-5-4--|
||-3-0-0-0-0-3-0-2-0-0-0-0-000-3-0-6------5------4------3------3-5-3-2--|
||---------------------------------6------5------4------3---------------|
|    . . . .   .   . . . . ...   .                             . . . .  |
|Rhythm Right                                                           |
||----------------------------------------------------------------------|
||----------------------------------------------------------------------|
||----------------------------------------------------------------------|
||---------------------------------8------7------6------5------5-7-5-4--|
||---------------------------------6------5------4------3------3-5-3-2--|
||---------------------------------6------5------4------3---------------|
                                                               . . . .

|----------------------------------------------------------------------||
|----------------------------------------------------------------------||
|----------------------------------------------------------------------||
|-5---------5---4-------------5---8------7------6------5------5-7-5-4--||
|-3-0-0-0-0-3-0-2-0-0-0-0-000-3-0-6------5------4------3------3-5-3-2--||
|---------------------------------6------5------4------3---------------||
|   . . . .   .   . . . . ...   .                             . . . .   |
|                                                                       |
|----------------------------------------------------------------------||
|----------------------------------------------------------------------||
|----------------------------------------------------------------------||
|-5---------5---4-----------------8------7------6------5------5-7-5-4--||
|-3---------3---2-----------------6------5------4------3------3-5-3-2--||
|---------------------------------6------5------4------3---------------||
                                                              . . . .

Intro B (0:11)
 Rhythm Left & Right
||------------------------------------------------------------------------|
||*----------------------------------------------------------------------*|
||------------------------------------------------------------------------|
||--5---------5---4-------------5---8------7------6------5------5-7-5-4---|
||*-3-0-0-0-0-3-0-2-0-0-0-0-000-3-0-6------5------4------3------3-5-3-2--*|
||----------------------------------6------5------4------3----------------|
      . . . .   .   . . . . ...   .                             . . . .

|------------------------------------------------------------------------|
|------------------------------------------------------------------------|
|------------------------------------------------------------------------|
|-5---------5---4-------------5------------------------------------------|
|-3-0-0-0-0-3-0-2-0-0-0-0-000-3-0-6-0-0-5-0-0-4------3------3h5p3-2h3p2--|
|---------------------------------ph----ph----ph-----ph------------------|
    . . . .   .   . . . . ...   .   . .   . .

|----------------------------------------------------------------------||
|----------------------------------------------------------------------||
|----------------------------------------------------------------------||
|-5---------5---4-------------5---8------7------6------5---------------||
|-3-0-0-0-0-3-0-2-0-0-0-0-000-3-0-6------5------4------3---------------||
|---------------------------------6------5------4------3---------------||
    . . . .   .   . . . . ...   .

Pre-Verse A (0:32)
 Rhythm Left
||---------------------------------------------------------------------------||
||---------------------------------------------------------------------------||
||---------------------------------------------------------------------------||
||-2-2----2-5-2----2-8-7----2-5-8----8-2-2----2-5-2----2-8-7----5-7----8-----||
||-0-0----0-3-0----0-6-5----0-3-6----6-0-0----0-3-0----0-6-5----3-5----6-----||
||---------------------------------------------------------------------------||
|                                                                             |
|Rhythm Right                                                                 |
||---------------------------------------------------------------------------||
||---------------------------------------------------------------------------||
||---------------------------------------------------------------------------||
||-2-----------------------------------2-2---------------8-7----5-7----8-----||
||-0-----------------------------------0-0---------------6-5----3-5----6-----||
||---------------------------------------------------------------------------||


Verse A (0:36)
 Rhythm Left & Right
||-----------------------------------------------------------------------------|
||*---------------------------------------------------------------------------*|
||-----------------------------------------------------------------------------|
||--2-2----2-5-2----2-8-7----2-5-8----8-2-2----2-5-2----2-8-7----5-7----8------|
||*-0-0----0-3-0----0-6-5----0-3-6----6-0-0----0-3-0----0-6-5----3-5----6-----*|
||-----------------------------------------------------------------------------|


|------------------------------------------------------------------------|
|------------------------------------------------------------------------|
|------------------------------------------------------------------------|
|---------------------------------8-7----2-5----8----8-7----2-5----8-----|
|-000000000000000000000000000000006-5----0-3----6----6-5----0-3----6-----|
|------------------------------------------------------------------------|
  ................................

|-------------------------------------------------------------------------||
|-------------------------------------------------------------------------||
|-------------------------------------------------------------------------||
|---------------------------------8-7----2-5----8----8-7----8-12----10----||
|-000000000000000000000000000000006-5----0-3----6----6-5----6-10----8-----||
|-------------------------------------------------------------------------||
  ................................

Verse B (0:53)                                                            4x
||--------------------------------------------------------------------------||
||*------------------------------------------------------------------------*||
||--------------------------------------------------------------------------||
||--7-9----7-9-------9-10---9-10------7-9----7-9----------------------------||
||*-5-7----5-7-------7-8----7-8-------5-7----5-7-8----8-8-5----5-5-3----2--*||
||-------------000000-----------000000-----------6----6-6-3----3-3-1----0---||
               ......           ......

Pre-Chorus (1:10)
 Rhythm Left
||--------------------------------------------------------------------------||
||--------------------------------------------------------------------------||
||--------------------------------------------------------------------------||
||--------------------------------7----7/9----7----7------------------------||
||-5/7----------10-9-10-------------10----------10------10-9-10----9-7-5----||
||--------------------------------------------------------------------------||
|                                                                            |
|Rhythm Right                                                                |
||--------------------------------------------------------------------------||
||--------------------------------------------------------------------------||
||--------------------------------------------------------------------------||
||-9-------------------------------------7----------------------------------||
||-7-------------------------------------5-------------------3--------------||
||-----------------------------------------------------------1--------------||


Chorus (1:15)
 Rhythm Left & Right
||----------------------------------------------------------------------|
||----------------------------------------------------------------------|
||----------------------------------------------------------------------|
||-9-7-9------------9-7-9------------9-5-7----7-7-7-7-7-----------------|
||-7-5-7----2-2-2-2-7-5-7----2-2-2-2-7-3-5----5-5-5-5-5---3----3-3-3-3--|
||----------0-0-0-0----------0-0-0-0--------------------0-1----1-1-1-1--|
            . . . .          . . . .                    .

|----------------------------------------------------------------------||
|----------------------------------------------------------------------||
|----------------------------------------------------------------------||
|-9-7-9------------9-7-9------------9-5-7----------5-7-----------------||
|-7-5-7----2-2-2-2-7-5-7----2-2-2-2-7-3-5----5-5-7-------3----3-3-3-3--||
|----------0-0-0-0----------0-0-0-0--------------------0-1----1-1-1-1--||
           . . . .          . . . .                    .

Guitar Solo (1:26)
 Lead Left
||----------------------------------------------------------------------|
||-8-7-8---------------------------------7------------------------------|
||------------------9-7-9------------9-7------9-7-9---7---7-------------|
||------------------------------------------------------10-----109-7----|
||----------------------------------------------------------------------|
||----------------------------------------------------------------------|
|                                                                       |
|Lead Right                                                             |
||----------------------------------------------------------------------|
||----------------------------------------------------------------------|
||----------------------------------------------------------------------|
||-9-7-9------------9-7-9------------109-7----109-10--9-7-9----7--------|
||---------------------------------------------------------------109----|
||----------------------------------------------------------------------|
|                                                                       |
|Rhythm Left & Right                                                    |
||----------------------------------------------------------------------|
||----------------------------------------------------------------------|
||----------------------------------------------------------------------|
||-9-7-9------------9-7-9------------9-5-7----7-7-7-7-7-----------------|
||-7-5-7----2-2-2-2-7-5-7----2-2-2-2-7-3-5----5-5-5-5-5---3----3-3-3-3--|
||----------0-0-0-0----------0-0-0-0--------------------0-1----1-1-1-1--|
            . . . .          . . . .                    .

|--------------7----------------7-----7-8----7---7-------7-------------||
|-8-7-8----8-10--108-7-8----8-10--108----------10--108-10-----108-7----||
|----------------------------------------------------------------------||
|----------------------------------------------------------------------||
|----------------------------------------------------------------------||
|----------------------------------------------------------------------||
|                                                                       |
|                                                                       |
|----------------------------------------------------------------------||
|------------7-8-7------------7-8-7---8-10---8-7-8-7---7-8----7--------||
|-9-7-9----9-------9-7-9----9-------9----------------9----------9-7----||
|----------------------------------------------------------------------||
|----------------------------------------------------------------------||
|----------------------------------------------------------------------||
|                                                                       |
|                                                                       |
|----------------------------------------------------------------------||
|----------------------------------------------------------------------||
|----------------------------------------------------------------------||
|-9-7-9------------9-7-9------------9-5-7----7-7-7-7-7-----------------||
|-7-5-7----2-2-2-2-7-5-7----2-2-2-2-7-3-5----5-5-5-5-5---3----3-3-3-3--||
|----------0-0-0-0----------0-0-0-0--------------------0-1----1-1-1-1--||
           . . . .          . . . .                    .

Chorus (1:36)
 Rhythm Left & Right
||----------------------------------------------------------------------|
||----------------------------------------------------------------------|
||----------------------------------------------------------------------|
||-9-7-9------------9-7-9------------9-5-7----7-7-7-7-7-----------------|
||-7-5-7----2-2-2-2-7-5-7----2-2-2-2-7-3-5----5-5-5-5-5---3----3-3-3-3--|
||----------0-0-0-0----------0-0-0-0--------------------0-1----1-1-1-1--|
            . . . .          . . . .                    .

|--------------------------------------------------------------------------------------------||
|--------------------------------------------------------------------------------------------||
|--------------------------------------------------------------------------------------------||
|-9-7-9------------9-7-9------------9-5-7----------5-7---------------------------------------||
|-7-5-7----2-2-2-2-7-5-7----2-2-2-2-7-3-5----5-5-7-------3----3-3-3-3-3-3-3-3-3-3-3-3-3-3-3--||
|----------0-0-0-0----------0-0-0-0--------------------0-1----1-1-1-1-1-1-1-1-1-1-1-1-1-1-1--||
           . . . .          . . . .                    .      . . . . . . . . . . . . . . .

Pre-Verse A (1:49)
 Rhythm Left
||---------------------------------------------------------------------------||
||---------------------------------------------------------------------------||
||---------------------------------------------------------------------------||
||-2-2----2-5-2----2-8-7----2-5-8----8-2-2----2-5-2----2-8-7----5-7----8-----||
||-0-0----0-3-0----0-6-5----0-3-6----6-0-0----0-3-0----0-6-5----3-5----6-----||
||---------------------------------------------------------------------------||
|                                                                             |
|Rhythm Right                                                                 |
||---------------------------------------------------------------------------||
||---------------------------------------------------------------------------||
||---------------------------------------------------------------------------||
||-2-----------------------------------2-2---------------8-7----5-7----8-----||
||-0-----------------------------------0-0---------------6-5----3-5----6-----||
||---------------------------------------------------------------------------||


Verse A (1:53)
 Rhythm Left & Right
||-----------------------------------------------------------------------------|
||*---------------------------------------------------------------------------*|
||-----------------------------------------------------------------------------|
||--2-2----2-5-2----2-8-7----2-5-8----8-2-2----2-5-2----2-8-7----5-7----8------|
||*-0-0----0-3-0----0-6-5----0-3-6----6-0-0----0-3-0----0-6-5----3-5----6-----*|
||-----------------------------------------------------------------------------|


|------------------------------------------------------------------------|
|------------------------------------------------------------------------|
|------------------------------------------------------------------------|
|---------------------------------8-7----2-5----8----8-7----2-5----8-----|
|-000000000000000000000000000000006-5----0-3----6----6-5----0-3----6-----|
|------------------------------------------------------------------------|
  ................................

|-------------------------------------------------------------------------||
|-------------------------------------------------------------------------||
|-------------------------------------------------------------------------||
|---------------------------------8-7----2-5----8----8-7----8-12----10----||
|-000000000000000000000000000000006-5----0-3----6----6-5----6-10----8-----||
|-------------------------------------------------------------------------||
  ................................

Bridge (2:06)
||-------------------------------------------------------------------------------||
||-------------------------------------------------------------------------------||
||-------------------------------------------------------------------------------||
||-9-9----9-9-9----9-8-8----8-8-8----8-7---7---7---7---7---7---6-----------------||
||-7-7----7-7-7----7-6-6----6-6-6----6-5---5---5---5---5---5---4-----------------||
||-------------------------------------------------------------------------------||
                                           .   .   .   .   .

Verse C (2:10)
||--------------------------------------------------------------------|
||*------------------------------------------------------------------*|
||--------------------------------------------------------------------|
||--5---------5---5-4---------5---5-8-----8-7-----7-6-----6-5-----4---|
||*-3-0-0-0-0-3-0-3-2-0-0-0-0-3-0-3-6-0-0-6-5-0-0-5-4-0-0-4-3-0-0-2--*|
||--------------------------------------------------------------------|
      . . . .   .     . . . .   .     . .     . .     . .     . .

|------------------------------------------------------------------|
|------------------------------------------------------------------|
|------------------------------------------------------------------|
|-5---------5---5-4---------5---5-8-----8-7-----7-6-----6-5-----4--|
|-3-000000003-0-3-2-000000003-0-3-6-00006-5-00005-4-00004-3-00002--|
|------------------------------------------------------------------|
    ........  .     ........  .     ....    ....    ....    ....

|------------------------------------------------------------------||
|------------------------------------------------------------------||
|------------------------------------------------------------------||
|-5---------5---5-4---------5---5-8-----8-7-----7-6-----6-5--------||
|-3-000000003-0-3-2-000000003-0-3-6-00006-5-00005-4-00004-3-0-2-3--||
|-----------------------------------------------------------0-2-3--||
    ........  .     ........  .     ....    ....    ....

Outro (2:31)
||---------------------------------------------------------------------------||
||---------------------------------------------------------------------------||
||---------------------------------------------------------------------------||
||-8--------7--------6--------5--------8--------7--------6--------5-7-5-4-2--||
||-6--------5--------4--------3--------6--------5--------4--------3-5-3-2-0--||
||-6--------5--------4--------3--------6--------5--------4-------------------||
                                                                  . . . .

            
            
Suggest correction
Creating personal tab
Creating personal tab
You can edit any tab online and save it as your Personal.

You can edit, replace or remove any tab part or add personal notes – all changes will be seen only by you.

Personal tabs can be accessed anytime from any device, even offline.
Learn more »
Give kudos to tab author, rate the tab!
1 2 3 4 5
comments
print report bad tab
guest
You may want to rate the tab now too:
select rating
Wanna post a correction for this tab? Suggest correction