Oops, an error
Loading. Please wait.

Deathripper intro tab

version 1
version 1

Intro

Interactive

5,289 views 3 this week
2 commentsread comments
1 2 3 4 5
x 4
add to favorites
×
Save as Personal and add changes to this tab that will be seen only by you. Learn more ›
×
You can save this tab as Personal to edit and correct it or add notes. All changes will be seen only by you. Learn more »
launch autoscroll
font size
0
reset
how to read this tab
guitar tuner
edit
Autoscroll
slow
fast
+/-
esc
set tempo
stop
Author
Difficulty
E]-----------------------------------------------]
B]-----------------------------------------------]
G]-----------------------------------------------]
D]------------------2----------------------------]
A]--3-5-3-2-3p2-----2---3-5-3-2-3p2--------------]
E]--------------3-2-0---------------3-2----------]

E]-------------------------------------------------]
B]-------------------------------------------------]
G]-------------------------------------------------]
D]-----------7-9-10-9-7-9s10----------5-7----------](x5)
A]---7-8p7---5-7--8-7-5-7s-8---7-8p7--3-5-3-2-3p2--]
E]00------0-----------------00-------0-----------3-]

E]-----------------------------------------------------]
B]-----------------------------------------------------]
G]-----------------------------------------------------]
D]---7-8p7---5-7-8-7-5-7h8---7-8p7--3-5-3-2-3-2h3p2----](x2)
A]-00------0---------------00------0---------------3p2-]
E]-----------------------------------------------------]

E]----------------------------------------------------]
B]----------------------------------------------------]
G]----------------------------------------------------]
D]---9-10-9---7-9-10-9-7-9-10---9-10-9--5-7-5-4-5-4---](x5)
A]---7-8--7---5-7--8-7-5-7--8---7--8-7--3-5-3-2-3-2-5-]
E]-00-------0-----------------00-------0------------3-]


E]--------------------------------------------------------------]
B]--------------------------------------------------------------]
G]--------------------------------------------------------------]
D]-9-----------10--9------------7--9---5-7-5-4------------------]
A]-7------------8--7------------5--7---3-5-3-2------------------]
E]---000000000------0000000000----------------------------------]

E]-----------------------------------------------------------]
B]-----------------------------------------------------------]
G]-----------------------------------------------------------]
D]-9-----------10--9------------7--9-------*5*---------------]
A]-7------------8--7------------5--7---3-5-------------------]
E]---000000000------0000000000-------------------------------]

            
            
Suggest correction
Creating personal tab
Creating personal tab
You can edit any tab online and save it as your Personal.

You can edit, replace or remove any tab part or add personal notes – all changes will be seen only by you.

Personal tabs can be accessed anytime from any device, even offline.
Learn more »
comments
print report bad tab
2 comments total.
0 reply
benjonotbanjo 83 Oct 03, 2007 06:39 PM

dont post until you have more than a measure done....

0 reply
ShredHead396 200 Jul 29, 2009 11:17 PM

Hey can you tab the rest of the song out?
the bass in my band learned the full thing and we want to do it but you only put the intro up, its annoying and no point in it at all so can you finish it or don't upload any more intros...

guest
You may want to rate the tab now too:
select rating
Wanna post a correction for this tab? Suggest correction