Oops, an error
Loading. Please wait.
We have an official Sadistic Magician tab made by UG professional guitarists. Check out the tab »
×
18,624 views 3 this week
1 commentread comment
1 2 3 4 5
x 6
add to favorites
×
Save as Personal and add changes to this tab that will be seen only by you. Learn more ›
×
You can save this tab as Personal to edit and correct it or add notes. All changes will be seen only by you. Learn more »
launch autoscroll
font size
0
reset
guitar tuner
edit
Autoscroll
slow
fast
+/-
esc
set tempo
stop
Author
SADISTIC MAGICIAN (Bassline)
As recorded by Municipal Waste
(From the 2008 Album THE ART OF PARTYING)


I could never figure out why there were no bass tabs for this song, so here it is. Keep 
faith, if you get a chance hit me up at Alec.stanley@gmail.com with corrections or 
\m/

(E A D G)

    Q=200
   4/4

    E E E E E E E E   E E E E E E E E  8x
||------------------|------------------||
||o-----------------|-----------------o||
||o-----------------|-----------------o||
||--6-0-0-3-0-5-6-0-|-0-3-0-5-0-6-5-3--||


    &
    E E E E E E E  E   E E E E E E E E   E E E E E E E E   E E E E E E E E  3x
||-------------------|-----------------|-----------------|------------------||
||o------------------|-----------------|-----------------|-----------------o||
||o------------------|-----------------|-----------------|-----------------o||
||--0-0-0-0-0-0-0--0-|-0-0-0-0-0-0-0-0-|-6-5-5-9-9-8-8-6-|-6-5-5-9-9-8-8-6--||


  S S S S S S S S S S S S S S S S
|---------------------------------|
|---------------------------------|
|---------------------------------|
|-6-6-5-5-5-5-9-9-9-9-8-8-8-8-6-6-|


    E E E E E E E E   E. E. E. E. E E   E E E E E E E E   E. E. E. E. E E
||------------------|-----------------|-----------------|-----------------|
||o-----------------|-----------------|-----------------|-----------------|
||o-1-1-1-1-1-1-1-1-|-4--6--4--7--6-4-|-1-1-1-1-1-1-1-1-|-4--6--4--7--6-4-|
||------------------|-----------------|-----------------|-----------------|


  E E E E E E E E   E E E E E E E E
|-----------------|------------------||
|---------3-3-3-3-|---------6-6-6-6-o||
|-1-1-1-1---------|-4-4-4-4---------o||
|-----------------|------------------||


  Q=180
  E Q  E E E E Q   E E E E Q  E   E E Q E E E E E
|----------------|--------------|-----------------|
|------3-4-3-----|-6-4-3------3-|-4-3-------4-4-4-|
|-1----------4---|-------1------|-----4-4-4-------|
|----------------|--------------|-----------------|


  S S S S S S E E E S S S S   S S E E E S S S S S S E   E E E E E E E E
|---------------------------|-------------------------|-----------------|--|
|-------------3-4-3---------|-----6-4-3-------------3-|-4-3-------4-4-4-|--|
|-1-1-1-1-1-1-------4-4-4-4-|-4-4-------1-1-1-1-1-1---|-----4-4-4-------|--|
|---------------------------|-------------------------|-----------------|--|


    S S S S S S S S S S S S S S S S   S S S S S S S S E S E S E
||----------------------------------|------------------------------|
||o---------------------------------|------------------------------|
||o---------------------------------|------------------------------|
||--6-6-6-6-6-6-6-6-6-6-6-6-6-6-6-6-|-6-6-6-6-6-6-6-6-4---4---4----|


  S S S S S S S S S S S S S S S S   S S S S S S S S S S S S E    3x
|---------------------------------|------------------------------||
|---------------------------------|-------------------------6b8-o||
|---------------------------------|-8-9-0-6-8-0-4-6-0-3-4-0-----o||
|-6-6-6-6-6-6-6-6-6-6-6-6-6-6-6-6-|------------------------------||


  S S S S S S S S S S S S S S S S   S S S S S S S S E S E S E H.
|---------------------------------|---------------------------------|
|---------------------------------|---------------------------------|
|---------------------------------|---------------------------------|
|-6-6-6-6-6-6-6-6-6-6-6-6-6-6-6-6-|-6-6-6-6-6-6-6-6-4---4---4-------|


    Q=200
    E E E E E E E E   E E E E E E E E
||------------------|------------------||-|
||o-----------------|-----------------o||-|
||o-----------------|-----------------o||-|
||--6-0-0-3-0-5-6-0-|-0-3-0-5-0-6-5-3--||-|


    E E E E E E E E   E E E E E E E E   E E E E E E E E   E E E E E E E E   3x
||------------------|-----------------|-----------------|-------------------||
||o-----------------|-----------------|-----------------|------------------o||
||o-----------------|-----------------|-----------------|------------------o||
||--0-0-0-0-0-0-0-0-|-0-0-0-0-0-0-0-0-|-6-5-5-9-9-8-8-6-|-6-5-5-9-9-8-8-6---||


  S S S S S S S S S S S S S S S S
|---------------------------------|
|---------------------------------|
|---------------------------------|
|-6-6-5-5-5-5-9-9-9-9-8-8-8-8-6-6-|


    E E E E E E E E   E. E. E. E. E E   E E E E E E E E   E. E. E. E. E E
||------------------|-----------------|-----------------|-----------------|
||o-----------------|-----------------|-----------------|-----------------|
||o-1-1-1-1-1-1-1-1-|-4--6--4--7--6-4-|-1-1-1-1-1-1-1-1-|-4--6--4--7--6-4-|
||------------------|-----------------|-----------------|-----------------|


  E E E E E E E E   E E E E E E E E
|-----------------|------------------||
|---------3-3-3-3-|---------6-6-6-6-o||
|-1-1-1-1---------|-4-4-4-4---------o||
|-----------------|------------------||

            
            
Suggest correction
Creating personal tab
Creating personal tab
You can edit any tab online and save it as your Personal.

You can edit, replace or remove any tab part or add personal notes – all changes will be seen only by you.

Personal tabs can be accessed anytime from any device, even offline.
Learn more »
comments
print report bad tab
1 comment total.
+1 reply
henrihell 520 Nov 30, 2010 09:00 AM

the ending of the D part is wrong, the last six notes are on the wrong strings. It should be like this:

G|-----------------|
D|-4-3-------------|
A|-----------4-4-4-|
E|-----4-4-4-------|

guest
You may want to rate the tab now too:
select rating
Wanna post a correction for this tab? Suggest correction