Oops, an error
Loading. Please wait.

White Wedding bass

version 2
version 2

Whole song

Interactive

5,367 views 1 this week
1 commentread comment
1 2 3 4 5
x 3
add to favorites
×
Save as Personal and add changes to this tab that will be seen only by you. Learn more ›
×
You can save this tab as Personal to edit and correct it or add notes. All changes will be seen only by you. Learn more »
launch autoscroll
font size
0
reset
guitar tuner
edit
Autoscroll
slow
fast
+/-
esc
set tempo
stop
White Wedding
Murderdolls
This is a remake of White Wedding by Billy Idol.
tabbed by Taylor Smith
Standard Tuning
(EADG)

  Intro with Rythym guitar. 
G|--------------|
D|--------------|
A|--------------|
E|--7~~-5~~-0~~-|x3

G|--------------|
D|--------------|
A|------5~~-7~~-|
E|--7~~---------|x1

G|-------|
D|-------|
A|-------|
E|--7~~--|x2

  Verse
G|----------------|
D|----------------|
A|----------------|
E|--7~-7~-5~~-0~~-|x3

G|----------|
D|----------|
A|----------|
E|--7~~--\--|


  Chorus
G|----------------------------------------------------------------------------------------|
D|----------------------------------------------------------------------------------------|
A|--------------------------------------------55555555---------------------------55555555-|
E|--5-5-5-5-0-0-0-0-7777777777777777-00000000----------7777777777777777-00000000----------|

G|----------|
D|----------|
A|----------|
E|--7~~--\--|


  Verse
G|------------------------------------|
D|------------------------------------|
A|------------------------------------|
E|-7777777777777777-55555555-00000000-|x2

G|----------------------------------------------------|
D|----------------------------------------------------|
A|----------------------------------------------------|
E|-7777777777777777-5555555555555555-7777777777777777-|x1


  Chorus
G|----------------------------------------------------------------------------------------|
D|----------------------------------------------------------------------------------------|
A|--------------------------------------------55555555---------------------------55555555-|
E|--5-5-5-5-0-0-0-0-7777777777777777-00000000----------7777777777777777-00000000----------|

G|----------|
D|----------|
A|----------|
E|--7~~--\--|


  Solo
G|------------------------------------|
D|------------------------------------|
A|------------------------------------|
E|-7777777777777777-55555555-00000000-|x2

G|--------------------------------------------------------------------------|
D|--------------------------------------------------------------------------|
A|----------------------------------------------------55555555-77777777-----|
E|-7777777777777777-0000000000000000-7777777777777777-------------------7~~-|

  Bridge
G|-----------------------------------|
D|-----------------------------------|
A|-----------------------------------|
E|--5-5-5-5-0-0-0-0-7777777777777777-|

"WORLD!!!!"

G|------------------------------------------------------------------------------------------|
D|------------------------------------------------------------------------------------------|
A|-----------5-5-5555---------------------------55555555---------------------------55555555-|
E|--0-0-0000----------7777777777777777-00000000----------7777777777777777-00000000----------|

G|-------------------------------------|
D|-------------------------------------|
A|----------------------------55555555-|
E|--7777777777777777-00000000----------|


  Outro
G|------------------|
D|------------------|
A|------------------|
E|-777777777777-7-7-|Repeat until finish
 

El Fin

            
            
Suggest correction
Creating personal tab
Creating personal tab
You can edit any tab online and save it as your Personal.

You can edit, replace or remove any tab part or add personal notes – all changes will be seen only by you.

Personal tabs can be accessed anytime from any device, even offline.
Learn more »
Give kudos to tab author, rate the tab!
1 2 3 4 5
comments
print report bad tab
1 comment total.
0 reply
skippy_moogoose 111 Jul 18, 2006 12:19 PM

hey
good tab, played it through about 7 or 8 times now, only thing is I dont think the intro is quite right, but maybe that's just me being a dodgy bassist, that's usually the problem, lol. like I say,good tab, and great cover of a great song I think.:D

guest
You may want to rate the tab now too:
select rating
Wanna post a correction for this tab? Suggest correction