Oops, an error
Loading. Please wait.

White Wedding bass

version 2
version 2

Whole song

Interactive

2,715 views 3 this week
no commentswrite comment
1 2 3 4 5
2 more votes to show rating
add to favorites
×
Save as Personal and add changes to this tab that will be seen only by you. Learn more ›
×
You can save this tab as Personal to edit and correct it or add notes. All changes will be seen only by you. Learn more »
launch autoscroll
font size
0
reset
guitar tuner
edit
Autoscroll
slow
fast
+/-
esc
set tempo
stop
Author
Difficulty
Intro

G |-------------------------------------------------|
D |-------------------------------------------------|
A |-222222222222222200000000------------------------| x2
E |-------------------------00000000----------------|

G |-------------------------------------------------|
D |-------------------------------------------------|
A |-22222222222222225555555577777777----------------|
E |-------------------------------------------------|

G |-------------------------------------------------|
D |-------------------------------------------------|
A |-222222222222222200000000------------------------| x2
E |-------------------------00000000----------------|

G |-------------------------------------------------|
D |-------------------------------------------------|
A |-222222222222222200000000000000002222222222222222|
E |-------------------------------------------------|

Chorus

G |-------------------------------------------------|
D |-------------------------------------------------|
A |-0-0-0-0---------2222222222222222----------------|
E |---------0-0-0-0---------------------------------|

G |-------------------------------------------------|
D |-------------------------------------------------|
A |---------5-5-5-5-2222222222222222----------------|
E |-0-0-0-0-----------------------------------------|

G |-------------------------------------------------|
D |-------------------------------------------------| (hold notes 0 and 5)
A |---------5~~~----2222222222222222----------------|
E |-0~~~--------------------------------------------|

Verse

G |-------------------------------------------------|
D |-------------------------------------------------|
A |-222222222222222200000000------------------------| x2
E |-------------------------00000000----------------|

G |-------------------------------------------------|
D |-------------------------------------------------|
A |-222222222222222200000000000000002222222222222222|
E |-------------------------------------------------|

Chorus

G |-------------------------------------------------|
D |-------------------------------------------------|
A |-0-0-0-0---------2222222222222222----------------|
E |---------0-0-0-0---------------------------------|

G |-------------------------------------------------|
D |-------------------------------------------------|
A |---------5-5-5-5-2222222222222222----------------|
E |-0-0-0-0-----------------------------------------|

G |-------------------------------------------------|
D |-------------------------------------------------| (hold note 5)
A |---------5~~~----2222222222222222----------------|
E |-0-0-0-0-----------------------------------------|


Verse/Bridge

G |-------------------------------------------------|
D |-------------------------------------------------|
A |-222222222222222200000000------------------------| x2
E |-------------------------00000000----------------|

G |-------------------------------------------------|
D |-------------------------------------------------|
A |-2222222222222222--------------------------------|
E |-----------------000000000000000-----------------|

G |-------------------------------------------------|
D |-------------------------------------------------|
A |-2222222222222222555555557777777-------2~~~------|
E |-------------------------------------------------|

Bridge

G |-------------------------------------------------|
D |-------------------------------------------------|
A |-0-0-00-0-------2222222222222222-----------------| 
E |---------0-0-000---------------------------------|  
(listen for the 0 hits 
on A string and E string coz im not sure exactly)

-Pause-

2nd Chorus

G |-------------------------------------------------|
D |-------------------------------------------------|
A |---------5-5-5-5-2222222222222222----------------| x3
E |-0-0-0-0-----------------------------------------|

G |-------------------------------------------------|
D |-------------------------------------------------| (hold note 5)
A |---------5~~~----2222222222222222----------------|
E |-0-0-0-0-----------------------------------------|

End

G |-------------------------------------------------|
D |-------------------------------------------------|
A |-22222222222222222222222222222222222-------------| (just keep hitting 2 
E |-------------------------------------------------|  until it ends)

Enjoy! Is a Fun song too jam and hopefully will have a guitar tab up soon aswell
coz i dnt like the others
 -Shiro

            
            
Suggest correction
Creating personal tab
Creating personal tab
You can edit any tab online and save it as your Personal.

You can edit, replace or remove any tab part or add personal notes – all changes will be seen only by you.

Personal tabs can be accessed anytime from any device, even offline.
Learn more »
Give kudos to tab author, rate the tab!
1 2 3 4 5
comments
print report bad tab
guest
You may want to rate the tab now too:
select rating
Wanna post a correction for this tab? Suggest correction