Oops, an error
Loading. Please wait.

I Am The Doctor tab

version 1
version 1

Whole song

22,109 views 9 this week
5 commentsread comments
1 2 3 4 5
x 3
add to favorites
×
Save as Personal and add changes to this tab that will be seen only by you. Learn more ›
×
You can save this tab as Personal to edit and correct it or add notes. All changes will be seen only by you. Learn more »
launch autoscroll
font size
0
reset
how to read this tab
guitar tuner
edit
Autoscroll
slow
fast
+/-
esc
set tempo
stop
Author
This is primarily for a rock cover I posted on SoundCloud a while back of 'I Am The
Doctor' that includes (almost) everything up until the flute solo in the second section of
the piece, though I guess that the riffs can be used to recreate Murray Gold's work in a 
lighter manner.

EDIT: Here's the link to the track on SoundCloud:

 https://soundcloud.com/spongefob/i-am-the-doctor-rock-cover

Leave corrections and comments down below and I'll be sure to look at them when I get a
chance and change what needs to be changed.

-Main theme.

e--------------------------------|
b--------------------------------|
g--------------------------------|
D-0-0-2-2-3-3-4-3-3-2-2-0-0-2----|
A--------------------------------|
E--------------------------------|

-Brass section chords (hold each one for 7 beats)

e--------------------------------|
b--------------------------------|
g-7--------3--------5-------3----|
D-7--------3--------5-------3----|
A-5--------1--------3-------1----|
E--------------------------------|

-Strings

e-----------------------------------------------------------------|
b-----------------------------------------------------------------|
g-7-7-7--7-7-7-5-7-7-7--7-7-7-5-7-7-7--7-7-7-5-7-7-7--7-7-7-5-----|
D-----------------------------------------------------------------|
A-----------------------------------------------------------------|
E-----------------------------------------------------------------|

-Strings shifted an octave higher.

 An alternative to playing it this way would be to play the same notes on the high E
string, though I guess it's up to personal preference and what you think sounds better on
your guitar.

e------------------------------------------------------------------------------------------|
b-15-15-15--15-15-15-13-15-15-15--15-15-15-13-15-15-15--15-15-15-13-15-15-15--15-15-15-13--|
g------------------------------------------------------------------------------------------|
D------------------------------------------------------------------------------------------|
A------------------------------------------------------------------------------------------|
E------------------------------------------------------------------------------------------|

-Palm muted guitar (play each 14 times, twice per crotchet)

e----------------------------------------|
b----------------------------------------|
g----------------------------------------|
D-7-----------3-----------5--------------|
A-5-----------1-----------3-----------5--|
E-------------------------------------3--|

Brass solo (not sure if this is in the actual song, wrote it into my cover and it
sounded alright). Listen to the track for timing.

e--------------------------------------------|
b--------5-6~------5h6p5---------------------|
g--7~---------------------5---7-----5--7-----|
D--------------------------------------------|
A--------------------------------------------|
E--------------------------------------------|

            
            
Suggest correction
Creating personal tab
Creating personal tab
You can edit any tab online and save it as your Personal.

You can edit, replace or remove any tab part or add personal notes – all changes will be seen only by you.

Personal tabs can be accessed anytime from any device, even offline.
Learn more »
Give kudos to tab author, rate the tab!
1 2 3 4 5
comments
print report bad tab
5 comments total. Showing first comments.
0 reply
para_ready_warp 32 Nov 10, 2012 11:27 AM

In the first part, I think that the 4 should be a 5

+1 reply
para_ready_warp 32 Nov 10, 2012 11:28 AM

e--------------------------------|
b--------------------------------|
g--------------------------------|
D-0-0-2-2-3-3-5-3-3-2-2-0-0-2----|
A--------------------------------|
E--------------------------------|

0 reply
Takamine24 30 Dec 19, 2012 02:39 AM

Thanks for pointing that out, surprised that I hadn't noticed that typo sooner. Cheers.

guest
You may want to rate the tab now too:
select rating
Wanna post a correction for this tab? Suggest correction