Oops, an error
Loading. Please wait.

I Am The Doctor tab

version 3
version 3

Whole song

29,727 views 99 this week
4 commentsread comments
1 2 3 4 5
x 21
add to favorites
×
Save as Personal and add changes to this tab that will be seen only by you. Learn more ›
×
You can save this tab as Personal to edit and correct it or add notes. All changes will be seen only by you. Learn more »
launch autoscroll
font size
0
reset
how to read this tab
guitar tuner
edit
Autoscroll
slow
fast
+/-
esc
set tempo
stop
Author
Repeat Dm, Bb, C and Gm throughout.


[Main Riff]

e|---0-1-3-1-0---0---0-1-3-1-0---0-------------------------------|
B|-3-----------3---3-----------3---------------------------------|
G|---------------------------------------------------------------|
D|---------------------------------------------------------------|
A|---------------------------------------------------------------|
E|---------------------------------------------------------------|

e|--------------0-1-1-1-1-1-1-0----------------------------------|
B|---3-3-3-3-3-3---------------1-1-1-1-1-1---3-3-3-3-3-3---------|
G|-2---------------------------------------2---------------------|
D|---------------------------------------------------------------|
A|---------------------------------------------------------------|
E|---------------------------------------------------------------|

e|---------------------------------------------------------------|
B|---------------------------------------------------------------|
G|-7-7-7--7-7-7-5-7-7-7--7-7-7-5-7-7-7--7-7-7-5-7-7-7--7-7-7-5---|
D|---------------------------------------------------------------|
A|---------------------------------------------------------------|
E|---------------------------------------------------------------|


[Solo]

e|-----------------------------------------------------------------------|
B|-----------------------------------------------------------------------|
G|-----2-3---1-1-2-------2-3---1-1-2-------2-3--4-4-3-------2-3---0-0-1--|
D|-0-3-----0---------0-3-----0---------0-3-----0--------0-3-----0--------|
A|-----------------------------------------------------------------------|
E|-----------------------------------------------------------------------|

Used for my YouTube video: http://www.youtube.com/watch?v=HXgsvXN8A9Q

            
            
Suggest correction
Creating personal tab
Creating personal tab
You can edit any tab online and save it as your Personal.

You can edit, replace or remove any tab part or add personal notes – all changes will be seen only by you.

Personal tabs can be accessed anytime from any device, even offline.
Learn more »
comments
print report bad tab
4 comments total. Showing first comments.
0 reply
OncomingStorm 139 Aug 12, 2013 03:45 PM

Perfect! :D

0 reply
tabs4u:) 41 Aug 21, 2013 01:54 AM

THIS IS AWESOME!!! 5 stars!

I think with the first line it also sonuds cool if you strum the chords and then play the tab like this:
e|-1-0-1-3-1-0---0---0-1-3-1-0---0-------------------------------|
B|-3-----------3---3-----------3---------------------------------|
G|-2-------------------------------------------------------------|
D|-0-------------------------------------------------------------|
A|---------------------------------------------------------------|
E|---------------------------------------------------------------|

0 reply
AnnoyingPedant 10 Apr 07, 2014 06:06 PM

Great tab! however solo sounds much better as 0h3 (h=hammer-on) on the D string.

guest
You may want to rate the tab now too:
select rating
Wanna post a correction for this tab? Suggest correction