Oops, an error
Loading. Please wait.
We have an official Animals tab made by UG professional guitarists. Check out the tab »
×
by Muse
5,882 views 3 this week
1 commentread comment
1 2 3 4 5
x 6
add to favorites
×
Save as Personal and add changes to this tab that will be seen only by you. Learn more ›
×
You can save this tab as Personal to edit and correct it or add notes. All changes will be seen only by you. Learn more »
launch autoscroll
font size
0
reset
how to read this tab
guitar tuner
edit
Autoscroll
slow
fast
+/-
esc
set tempo
stop
Intro
Eb|-----|
Bb|-----|
Gb|--9~-|
Db|-----|
Ab|-----|
Eb|-----|


Verse
Eb|--------------------------------------------------|
Bb|--7-8-10~-8-7h8p7---------------------------------|
Gb|------------------9-7-9~---4-5-7-5-4-5-4----------|
Db|-----------------------------------------7/9------|
Ab|---------------------------------------------10~--|
Eb|--------------------------------------------------|

Eb|-----------12----------12--------------15-15--------|
Bb|---------12--h15b17--17--17r15-13-12-12------12-13~-|
Gb|--14b16---------------------------------------------|
Db|----------------------------------------------------|
Ab|----------------------------------------------------|
Eb|----------------------------------------------------|

Pre-chorus
Eb|-------------------------------------------------------|
Bb|--------------------------------10~----------10-11-12~-|
Gb|------------11~-------12~------------------------------|
Db|--12~--10-12-----10-12-----10-12-----10-11-12----------|
Ab|-------------------------------------------------------|
Eb|-------------------------------------------------------|

Chorus
Eb|-------------------------------------|
Bb|--pb12r10---13~------12~--10/12/16~--|
Gb|----------12-------------------------|
Db|-------------------------------------|
Ab|-------------------------------------|
Eb|-------------------------------------|

Break 1
Eb|-----------------------------------------------------------|
Bb|-----------------------------------------------------------|
Gb|------------12-16-14-12-14-12-11h12p11--11-----------------|
Db|----------14--------------------------14--14-12-14-12------|
Ab|--------14-------------------------------------------15-14-|
Eb|---12-15---------------------------------------------------|

Eb|-----------------------------------------------------------|
Bb|------------13-17-15-13-15-13-12h13p12--12-----------------|
Gb|----------14--------------------------14--14-12-14-12-11---|
Db|--------14----------------------------------------------14-|
Ab|---12-15---------------------------------------------------|
Eb|-----------------------------------------------------------|

Eb|-----------------------------------------------------------|
Bb|-----------------------------------------------------------|
Gb|------------12-16-14-12-14-12-11h12p11--11-----------------|
Db|----------14--------------------------14--14-12-14-12------|
Ab|--------14-------------------------------------------15-14-|
Eb|---12-15---------------------------------------------------|

Eb|---------------------------------------------------------------|
Bb|------------13-17-15-13-15-13-12h13p12--12---------------------|
Gb|----------14--------------------------14--14-12-14-12-11-12~---|
Db|--------14-----------------------------------------------------|
Ab|---12-15-------------------------------------------------------|
Eb|---------------------------------------------------------------|


Verse
Eb|-------------------------------------------------------------------<12>-------|
Bb|--------10----------8-----------8--------10------5---------------<12>----<5>--|
Gb|---11-12--12--12-12-11b12-12-12-12r11-9-9--9-7b9-9r7-5-5-4h5p4---------<5>----|
Db|--------------------------------------------------------------5~--------------|
Ab|------------------------------------------------------------------------------|
Eb|------------------------------------------------------------------------------|

Eb|------------12-----------12-------------12--12---------15--15--15---------|
Bb|----------12--h15b17--17----17r15--13-13--13--13-12--12--12--12---12-13~--|
Gb|---14b16------------------------------------------------------------------|
Db|--------------------------------------------------------------------------|
Ab|--------------------------------------------------------------------------|
Eb|--------------------------------------------------------------------------|
                 
Pre-chorus
Eb|-------------------------------------------------------|
Bb|--------------------------------10~----------10-11-12~-|
Gb|------------11~-------12~------------------------------|
Db|--12~--10-12-----10-12-----10-12-----10-11-12----------|
Ab|-------------------------------------------------------|
Eb|-------------------------------------------------------|

Chorus
Eb|-------------------------------------|
Bb|--pb12r10---13~------12~--10/12/16~--|
Gb|----------12-------------------------|
Db|-------------------------------------|
Ab|-------------------------------------|
Eb|-------------------------------------|


Break 2
Eb|---------------------|---------------------|
Bb|---------------------|---------------------|
Gb|---------------------|---------------------|
Db|-x-x-x-x-x-x-x-x-x-x-|-x-x-x-x-x-x-x-x-x-x-|
Ab|-x-x-x-x-x-x-x-x-x-x-|-x-x-x-x-x-x-x-x-x-x-|
Eb|-x-x-x-x-x-x-x-x-x-x-|-x-x-x-x-x-x-x-x-x-x-|

Eb|---------------------|---------------------|
Bb|---------------------|---------------------|
Gb|---------------------|---------------------|
Db|-x-x-x-x-x-x-x-x-x-x-|-x-x-x-x-x-x-x-x-x-x-|
Ab|-0-0-0-0-0-0-0-0-0-0-|-x-x-x-x-x-x-x-x-x-x-|
Eb|-x-x-x-x-x-x-x-x-x-x-|-x-x-x-x-x-x-x-x-x-x-|
   

Eb|-------------------------------|-----------------------------|
Bb|-------------------------------|-----------------------------|
Gb|----11-12-11-12-14-12-11-12-11-|---11-12-11-12-14-12-11-12-0-|
Db|--14---------------------------|-14--------------------------|
Ab|-------------------------------|-----------------------------|
Eb|-------------------------------|-----------------------------|

Eb|------------------------------|-------------------------------|
Bb|----12-13-12-13-15-13-12-13-0-|------12--12-13-12--12---------|
Gb|--14--------------------------|-12-14--14--------14--14-12-11-|
Db|------------------------------|-------------------------------|
Ab|------------------------------|-------------------------------|
Eb|------------------------------|-------------------------------|

Eb|-------------------------------|-----------------------------|
Bb|-------------------------------|-----------------------------|
Gb|----11-12-11-12-14-12-11-12-11-|---11-12-11-12b14r12-11-12-0-|
Db|--14---------------------------|-14--------------------------|
Ab|-------------------------------|-----------------------------|
Eb|-------------------------------|-----------------------------|

Eb|------------------------------|-------------------------------|
Bb|----12-13-12-13-15-13-12-13-0-|------12--12-13-12--13-12------|
Gb|--14--------------------------|-12-14--14--------14-----14-12-|
Db|------------------------------|-------------------------------|
Ab|------------------------------|-------------------------------|
Eb|------------------------------|-------------------------------|

Pre-chorus
Eb|----------------------|-----------------------|----------------|---------------------|
Bb|----------------13----|--------------13-------|----------13----|--------------13-----|
Gb|---14--14-14--14---14-|-13--13-13--13---13\12-|-12-12--12---12-|-11--11-11--11---11--|
Db|----------------------|-----------------------|----------------|---------------------|
Ab|----------------------|-----------------------|----------------|---------------------|
Eb|----------------------|-----------------------|----------------|---------------------|

Eb|----------------------|--------------------|--------------------|------------------------|
Bb|----------------15----|--------------15----|--------------15----|--------------15--------|
Gb|---11--11-11--11---11-|-12--12-12--12---12-|-13--13-13--13---13-|-14--14-14--14---14/16--|
Db|----------------------|--------------------|--------------------|------------------------|
Ab|----------------------|--------------------|--------------------|------------------------|
Eb|----------------------|--------------------|--------------------|------------------------|

Chorus
Eb|----------------15----|--------------14----|--------------12----|--------------12----|
Bb|---12--12-12--12---12-|-12--12-12--12---12-|-12--12-12--12---12-|-12--12-12--12---12-|
Gb|----------------------|--------------------|--------------------|--------------------|
Db|----------------------|--------------------|--------------------|--------------------|
Ab|----------------------|--------------------|--------------------|--------------------|
Eb|----------------------|--------------------|--------------------|--------------------|

Eb|---------12---12----|-------14---14--|------------12---12---12---12---12---12----|
Bb|---13--13---13---13-|-13--13---13----|-13-13-13-13--13---13---13---13---13---13--|
Gb|--------------------|----------------|-------------------------------------------|
Db|--------------------|----------------|-------------------------------------------|
Ab|--------------------|----------------|-------------------------------------------|
Eb|--------------------|----------------|-------------------------------------------|

Eb|---------11---11----|-------11---11-----|
Bb|---12--12---12---12-|-12--12---12---12--|
Gb|--------------------|-------------------|
Db|--------------------|-------------------|
Ab|--------------------|-------------------|
Eb|--------------------|-------------------|

Outro
Eb|-----------------------|
Bb|-----------------------|
Gb|-----------------------|     
Db|--------14-----12------|       
Ab|-------------------15--|                     
Eb|--12--12--12-12--12----| x3

Eb|------------------------|
Bb|------------------------|
Gb|------------------------|     
Db|--------14-----12-------|       
Ab|-------------------15\--|                     
Eb|--12--12--12-12--12-----| 


Eb|----------------------|
Bb|----------------------|
Gb|----------------------|
Db|----------------------|
Ab|----------------------|
Eb|--0--0-12-0-0-10-0-8--| x3

Eb|----------------------|-------|
Bb|----------------------|---12--|
Gb|----------------------|---12--|
Db|----------------------|---14--|
Ab|----------------------|-------|
Eb|--0--0-12-0-0-10-0-8--|-------|

Eb|----------------------|
Bb|----------------------|
Gb|----------------------|
Db|----------------------|
Ab|----------------------|
Eb|--0--0-12-0-0-10-0-8--| x4

Eb|-------------------------|-----------------------|
Bb|-------------------------|-----------------------|
Gb|-------------------------|-----------------------|
Db|-------------------------|-----------------------|
Ab|---------9-----10---12---|--7-----6-----5---3----|
Eb|---0-0-0---0-0----0----0-|----0-0---0-0---0---0--| x2

Eb|-------------------------|-----------------------|
Bb|-------------------------|-----------------------|
Gb|-------------------------|-----------------------|
Db|-------------------------|-----------------------|
Ab|---7-----9-----10---12---|--7-----6-----5---3----|
Eb|---0-0-0---0-0----0----0-|--0-0-0---0-0---0---0--|

Eb|--------------------------|----------------------|
Bb|--------------------------|----------------------|
Gb|----9-9-9-----------------|--9-------------------|
Db|----x-x-x-----------------|--x-------------------|
Ab|----7-7-7-9-----10---12---|--7-----6-----5---3\--|
Eb|----0-0-0---0-0----0----0-|--0-0-0---0-0---0-----|

            
            
Suggest correction
Creating personal tab
Creating personal tab
You can edit any tab online and save it as your Personal.

You can edit, replace or remove any tab part or add personal notes – all changes will be seen only by you.

Personal tabs can be accessed anytime from any device, even offline.
Learn more »
comments
print report bad tab
1 comment total.
+1 reply
DJHazzer 27 Jun 22, 2014 02:35 AM

Verse
Eb|--------------------------------------------------|
Bb|--7-8-10~-8-7h8p7---------------------------------|
Gb|------------------9-7-9~---4-5-7-5-4-5-4----------|
Db|-----------------------------------------7/9------|
Ab|---------------------------------------------10~--|
Eb|--------------------------------------------------|

This is the 'correct' (that sounds critical sorry) to play that passage, great tab and have only learnt this line so far but on the making of video matt plays this passage exactly as you have tabbed it apart from instead of going to 7th fret on the Db string then back to 4th fret Gb string he plays the 7th but then slides to the 9th fret which is the same note but sounds more like the song (with a slide rather than two seperate notes) and also makes it easier to go to the 10th fret Ab afterwards rather than jumping from around the 4/5th frets to the 10th. Rest of the tab looks great tho and because matt plays it like this in the making of video im sure this is in the right key/position whatever as every tab seems to have it played differently.

guest
You may want to rate the tab now too:
select rating
Wanna post a correction for this tab? Suggest correction