Oops, an error
Loading. Please wait.

Dark Shines bass

version 5
version 5

Interactive

by Muse
620 views 6 this week
no commentswrite comment
1 2 3 4 5
1 last vote to show rating
add to favorites
×
Save as Personal and add changes to this tab that will be seen only by you. Learn more ›
×
You can save this tab as Personal to edit and correct it or add notes. All changes will be seen only by you. Learn more »
launch autoscroll
font size
0
reset
guitar tuner
backing track
0:00
0:00
edit
Autoscroll
slow
fast
+/-
esc
set tempo
stop
This bass tab for Dark Shines is almost 100% accurate, as I have perfect 
pitch and know how it sounds. You're welcome. 

Intro 
B|----------------|----------------|----------------|----------------| 
D|0-2-3---0--3----|--0-2-3---0--3--|3-2----2--------|3-2----2--------| 
A|------0--------0|--------0------0|---4-0----4----0|---4-0----4----4| 
D|----------------|----------------|----------------|----------------| 

B|----------------|----------------|----2------2----|----------------| 
D|5-------5------0|3-0-----3--0----|--2-------------|----------------| 
A|--5--------5----|----1-----------|0-------0-------|0-2-4-----0--4--| 
D|----8-5---------|------3--------3|------2--------2|------2---------| 


Verse 1 
B|----------------|----------------|----------------|----------------| 
D|----------------|----------------|----------------|----------------| 
A|----------------|----------------|0-0-------------|0-0-------------| 
D|0-0-------------|0-0-------------|----------------|----------------| 

B|----------------|----------------|----------------|2---------------| 
D|----------------|----------------|----------------|--------------7\| 
A|----------------|----------------|----------------|--0-------------| 
D|5-5-------------|3-3-------------|2-2-------------|----------------| 

Still verse 1, but repeat intro, except for last bar where it goes 
B|----------------| 
D|----------------| 
A|0-0-570-0-/-12--| 
D|----------------| 


Chorus 
B|----------------|----------------|----------------|----------------| 
D|0-0-570-0-/-12-\|0-0-570-0-/-12-\|----------------|----------------| 
A|----------------|----------------|0-0-570-0-/-12-\|0-0-570-0-/-12-\| 
D|----------------|----------------|----------------|----------------| 

B|----------------|----------------|----------------|----------------| 
D|----------------|----23----------|----------------|----------------| 
A|----35------10-\|1-1---1-1-/-13-\|0-0-570-0-/-12-\|0-0-570-0-/-12-\| 
D|5-5---5-5-/-----|----------------|----------------|----------------| 


Intro again where guitar plays a riff 


Verse 2 is the same as playing from verse 1 again 


Chorus x2 2. riff from guitar/bridge 
B|----------------|----------------|----------------|----------------| 
D|5-------5-------|5-------5-------|0-2-3---0--3----|0-2-3---0--3----| 
A|--5--------5----|--5--------5---0|------0--------0|------0---------| 
D|----8-5---------|----8-5---------|----------------|----------------| x3 

last part is different... 
B|1-------1-------|1-------1-------|2-------2-------|2-------2-------| 
D|--3-0------3----|--3-0------3----|--2--------2----|--2--------2----| 
A|------2---------|------2---------|----4-0---------|----4-0---------| 
D|----------------|----------------|----------------|----------------| 


After bridge there's the breakdown 
B|----------------|----------------|----------------|----------------| 
D|5---------------|5---------------|0-2-3---0--3----|0-2-3---0--3----| 
A|----------------|----------------|------0--------0|------0---------| 
D|--5-------------|--5-------------|----------------|----------------| x3 

B|1---------------|1---------------|2---------------|----------------| 
D|--3-------------|--3-------------|----------------|----------------| 
A|----------------|----------------|----------------|----------------| 
D|----------------|----------------|----------------|----------------| 


Chorus x2 


Outro 
B|-------------------|----------------|----------------|----------------| 
D|----5-7----1011----|57----02----57--|----------------|----------------| 
A|0-0----0-0-----0-0-|--0-0---0-0---0-|5---------------|----------------| 
D|-------------------|----------------|----------------|----------------| 

Don't forget the synth sound in the verse and a 
good drive in the chorus 
Enjoy!

            
            
Suggest correction
Creating personal tab
Creating personal tab
You can edit any tab online and save it as your Personal.

You can edit, replace or remove any tab part or add personal notes – all changes will be seen only by you.

Personal tabs can be accessed anytime from any device, even offline.
Learn more »
Give kudos to tab author, rate the tab!
1 2 3 4 5
comments
print report bad tab
guest
You may want to rate the tab now too:
select rating
Wanna post a correction for this tab? Suggest correction