Oops, an error
Loading. Please wait.
We have an official Dig Down tab made by UG professional guitarists. Check out the tab »
×

Dig Down tab

version 2
version 2

Whole song

  • This version is taken from the acoustic cover by Alec Andreev.

Interactive

by Muse
1,600 views 60 this week
no commentswrite comment
1 2 3 4 5
x 7
add to favorites
×
Save as Personal and add changes to this tab that will be seen only by you. Learn more ›
×
You can save this tab as Personal to edit and correct it or add notes. All changes will be seen only by you. Learn more »
launch autoscroll
font size
0
reset
how to read this tab
guitar tuner
edit
Autoscroll
slow
fast
+/-
esc
set tempo
stop
I used the live version (https://www.youtube.com/watch?v=aLXTXgXe5tc) and the actual song to write this,
both are pretty much identical. During the first verse and chorus there is no guitar, nor is there during
the 2nd chorus. There are certain parts during the solo where Matt will just slide so I decided not to tab
those but can be found watching the live video.

[Verse 2]
E|--------3-----------3-----|--------3-----------3-----|--------3-----------3-----|
B|-----3-----3-----3-----3--|-----3-----3-----3-----3--|-----3-----3-----3-----3--|
G|--------------------------|--------------------------|--5-----------5-----------|
D|--5-----------5-----------|--3-----------3-----------|--------------------------| (x2)
A|--------------------------|--------------------------|--------------------------|
D|--------------------------|--------------------------|--------------------------|

E|--------3-----------3-----|--------3-----------3-----|
B|-----3-----3-----3-----3--|-----3-----3-----3-----3--|
G|--------------------------|--------------------------|
D|--5-----------5-----------|--5-----------5-----------|
A|--------------------------|--------------------------|
D|--------------------------|--------------------------|

[Solo] (Fuzz)
                                                        TP-----------------------------------------|
E|------|----------|----------|-------------------------|-------------------------------|-----------|
B|------|----------|----------|-------------------------|-------------------------------|-----------|
G|------|----------|----------|--4b5--4b5--4b5r4--2/9---|--11----12----14--16--17---19--|--19-------|
D|------|----------|----------|-------------------------|-------------------------------|-----------|
A|------|----------|----------|-------------------------|-------------------------------|-----------|
D|--7~--|---7~\0---|---9~\2---|-------------------------|-------------------------------|-----------|

                                              TP----------|
E|--17b19--17b19--17b19--17b19--17b19r17--15--|--13-----12--|
B|--------------------------------------------|-------------|
G|--------------------------------------------|-------------|
D|--------------------------------------------|-------------|
A|--------------------------------------------|-------------|
D|--------------------------------------------|-------------|

[Final Chorus]
E|--------------------------------|--------------------------------|--------------------------------|
B|--------------------------------|--------------------------------|--------------------------------|
G|--------------------------------|--------------------------------|--------------------------------|
D|--------------------------------|--------------------------------|--------------------------------| (x2)
A|--------------------------------|--------------------------------|--3-----3-----3-----3--3--3--3--|
D|--5-----5-----5-----5--5--5--5--|--3-----3-----3-----3--3--3--3--|--------------------------------|

[Ending]
E|------|
B|------|
G|------|
D|------|
A|------|
D|--5~--|

*********************************

| ~ Vibrato
| \ Slide Down
| / Slide Up
| b Bend
| r Release
| TP Tremelo Pick

*********************************

            
            
Suggest correction
Creating personal tab
Creating personal tab
You can edit any tab online and save it as your Personal.

You can edit, replace or remove any tab part or add personal notes – all changes will be seen only by you.

Personal tabs can be accessed anytime from any device, even offline.
Learn more »
comments
print report bad tab
guest
You may want to rate the tab now too:
select rating
Wanna post a correction for this tab? Suggest correction