Oops, an error
Loading. Please wait.
We have an official Exo-Politics tab made by UG professional guitarists. Check out the tab »
×
by Muse
12,515 views 1 this week
3 commentsread comments
1 2 3 4 5
x 9
add to favorites
guitar tuner
Autoscroll
slow
fast
+/-
esc
set tempo
stop
"Exo-politics"
demo version
Play now

or get full version for Free

×
Get full version now!
Learn and play this song
in Tab Pro
Try for free

or get $10 off Welcome Bonus

Get welcome bonus
Get access to Tab Pro version of “Exo-politics”!
Tab Pro is a premium guitar tab service, available on PC, Mac, iOS and Android
TRY FOR FREE
To download “Exo-politics” Guitar Pro tab click button below
Please note that you must have Guitar Pro software installed on your
computer in order to view this file.
Suggest correction
comments
report bad tab
3 comments total.
0 reply
dspek 109 May 08, 2007 11:20 AM

few mistakes here and there, but probably best guitar pro tab for this song. Great job, 5 stars. Especially for the vocals and guitar. Awesome.

+1 reply
jetwash69 244 May 08, 2011 12:14 PM

Ditto. Much better than version 2. Although many of the version 2 differences still have the same notes, they're in the wrong places on the fretboard, and goofy/hard to play. This one's spot on; main problem is missing an eighth note after the bends on the second fret.

Good job. Thanks!

0 reply
Saoryn 41 Nov 01, 2012 11:45 AM

Isn't the part for Gtr. 3 just picking the chords? As in:

E  E  E  E  E  E  E  E     E  E  E  E  E  E  E  E   
E||--------------------------|--------------------------|
A||--------------------------|--------------1-----------|
D||--------------7-----------|--------2--------2-----2--|
G||--------8--------8-----8--|-----------3--------3-----|
B||-----------8--------8-----|--------------------------|
E||--6--6--------------------|--1--1--------------------|

E E E E E E E E E E E E E E E E
--------------------------|--------------------------|
--------------------------|--------------6-----------|
--------------6-----------|--------7--------7-----7--|
--------7--------7-----7--|-----------7--------7-----|
-----------7--------7-----|--5--5--------------------|
--5--5--------------------|--------------------------|

E E E E E E E E E E E E E E E E
--------------------------|--------------------------|
--------------------------|--------------1-----------|
--------------7-----------|--------2--------2-----2--|
--------8--------8-----8--|-----------3--------3-----|
-----------8--------8-----|--------------------------|
--6--6--------------------|--1--1--------------------|

E E E E E E E E E E E E E E E E
--------------------------|--------------------------|
--------------------------|--------------------------|
--------------6-----------|--------------6-----------|
--------7--------7-----7--|--------7--------7-----7--|
-----------7--------7-----|-----------7--------7-----|
--5--5--------------------|--5--5--------------------|

guest
You may want to rate the tab now too:
select rating