Oops, an error
Loading. Please wait.

Exogenesis Part 1 Overture solo tab

version 1
version 1

Solo

  • Updated the [Solo Bridge] to better reflect the studio version.

Interactive

by Muse
100 views 1 this week
no commentswrite comment
1 2 3 4 5
3 more votes to show rating
add to favorites
×
Save as Personal and add changes to this tab that will be seen only by you. Learn more ›
×
You can save this tab as Personal to edit and correct it or add notes. All changes will be seen only by you. Learn more »
launch autoscroll
font size
0
reset
how to read this tab
guitar tuner
edit
Autoscroll
slow
fast
+/-
esc
set tempo
stop
About this tab version
Updated the [Solo Bridge] to better reflect the studio version. Was this info helpful? Yes No
| Song:
| 
|   Name:       Exogenesis Symphony Part 1 Overture
|   Author:     Muse
|   Language:   English
|   Tempo:      6/8 (~240 BPM)
|   
|   Tuning:     Drop D ( D A D G B e )
|   Difficulty: Intermediate
|   Capo:       No capo
| 



02:53 [Solo]

e||------------------|------------------|------------------|
B||------------------|------------------|------------------|
G||------------------|------------------|------------------|
D||------------------|------------------|------------------|
A||------------------|------------------|------------------|
D||-0----------------|-3~-------6~------|-7~-------7--7--7-|



e||------------------|------------------|------------------|
B||------------------|------------------|------------------|
G||------------------|------------------|------------------|
D||-7--7--7--7--7--7-|-7--7--7-/8~------|-8--0--0-/12~-----|
A||------------------|------------------|------------------|
D||-7--7--7--7--7--7-|------------------|------------------|



e||------------------|------------------|
B||------------------|------------------|
G||------------------|------------------|
D||-11~-----\8~-8----|-7~---------------|
A||------------------|------------------|
D||------------------|------------------|



03:12 [Solo Bridge]
                       PM PM PM PM PM PM PM PM PM PM
e||------------------|------------------------------------|
B||------------------|------------------------------------|
G||------------------|------------------------------------|
D||------------7-----|------------------------------------|
A||------------------|------------------------------------|
D||------------------|-0--2--3--0--5--6--0--7--8--9-------|


    TP                 TP                
e||-----------------||-----------------||-----------------|
B||-13--------------||-11--------------||-10--------------|
G||-----------------||-----------------||-----------------|
D||-10--------------||--8--------------||--7br-br---------|
A||-----------------||-----------------||-----------------|
D||-----------------||-----------------||-----------------|


            TP
e||-----------------||------------------------------------|
B||\8~~-----8-------||------------------------------------|
G||-----------------||------------------------------------|
D||\5~~-----5-------||------------------------------------|
A||-----------------||-5--5--5--5--5--5--6--6--6--6--6--6-|
D||-----------------||-5--5--5--5--5--5--6--6--6--6--6--6-|



03:42 [Solo Ending]

e||------------------||-----------------||-----------------||-----------------||-----------------|
B||------------------||-----------------||-----------------||-----------------||-----------------|
G||------------------||-----------------||-----------------||-----------------||-----------------|
D||------------------||-----------------||-----------------||-----------------||--0~~------------|
A||-7~~--------------||-7~~-------------||-8~~-------------||-11~~------------||--0~~------------|
D||-7~~--------------||-7~~-------------||-8~~-------------||-11~~------------||-12~~------------|




************************************

 /      Slide up
 \      Slide down
 ~      Vibratio
 TP     Tremolo Picking
 PM     Palm Mute
 b      Bend
 br     Bend Release

************************************

            
            
Suggest correction
Creating personal tab
Creating personal tab
You can edit any tab online and save it as your Personal.

You can edit, replace or remove any tab part or add personal notes – all changes will be seen only by you.

Personal tabs can be accessed anytime from any device, even offline.
Learn more »
Give kudos to tab author, rate the tab!
1 2 3 4 5
comments
print report bad tab
guest
You may want to rate the tab now too:
select rating
Wanna post a correction for this tab? Suggest correction