Oops, an error
Loading. Please wait.

Explorers tab

version 1
version 1

Whole song

Interactive

by Muse
2,058 views 30 this week
no commentswrite comment
1 2 3 4 5
1 last vote to show rating
add to favorites
×
Save as Personal and add changes to this tab that will be seen only by you. Learn more ›
×
You can save this tab as Personal to edit and correct it or add notes. All changes will be seen only by you. Learn more »
launch autoscroll
font size
0
reset
how to read this tab
guitar tuner
edit
Autoscroll
slow
fast
+/-
esc
set tempo
stop
Author
Difficulty
Unregistered
=Intro=

   C                 Ebdim             Ddim              Ddim
e|---------------0-|-----------------|---------------1-|---------7-------|
B|-------1-----1---|-------1-----1-4-|-----0-3---0-3---|-----6-9---6-----|
G|-----0-----0-----|-----2-----2-----|---1-----1-------|---7---------7---|
D|---2-----2-------|-1-4-----4-------|-3---------------|-9-------------9-|
A|-3---------------|-----------------|-----------------|-----------------|
E|-----------------|-----------------|-----------------|-----------------|



=Verse 1 (Sounds better to strum along with the chords)=

   C/G               CM7               C7                F
e|------------------|-----------------|-----------------|-----------------|
B|o---------------1-|-----------------|-----------------|-----------------|
G|--------0-----0---|-------0-------0-|-------0-------0-|-----------------|
D|------2-----2-----|-----2-------2---|-----2-------2---|-----2-3-----2-3-|
A|o---3-----3-------|-2-3-----2-3-----|-1-3-----1-3-----|---3-------3-----|
E|--3---------------|-----------------|-----------------|-5-------5-------|

    Fm                C/G               D                 Fm                  
e|------------------|-----------------|-----------------|-----------------|
B|------------------|-----------------|-----------------|-----------------|
G|------------------|-----------------|-----------------|-----------------|
D|------2-3-----2-3-|-----0-2-----0-2-|-----0-2-----0-2-|-----0-2-----0-2-|
A|----3-------3-----|---3-------3-----|---0-------0-----|-----------------|
E|--4-------4-------|-3-------3-------|-2-------2-------|-1-4-----1-4-----|

   CM7/E             Ebdim             Fm6               Fm6
e|-----------------|-----------------|-----------------|------------------|
B|-----0-1-----0-1-|-------1-------1-|-------1-------1-|-------1-------1-o|
G|---0-------0-----|-----2-------2---|-----1-------1---|-----1-------1----|  
D|-2-------2-------|-1-4-----1-4-----|-0-3-----0-3-----|-0-3-----0-3------|  
A|-----------------|-----------------|-----------------|-----------------o|  
E|-----------------|-----------------|-----------------|------------------|  



=Chorus 1 (Pretty much just chords)=

C        Am       Em                F
Free me, free me, free me from this world
          Dm           G               E             Am
I don't belong here it was a mistake imprisoning our souls
        F        G                 (On "world" play the intro again)
Can you free me? Free me from this world?



=Verse 2 (Sounds better to strum along with the chords)=

   C/G               CM7               C7                F
e|------------------|-----------------|-----------------|-----------------|
B|o---------------1-|-----------------|-----------------|-----------------|
G|--------0-----0---|-------0-------0-|-------0-------0-|-----------------|
D|------2-----2-----|-----2-------2---|-----2-------2---|-----2-3-----2-3-|
A|o---3-----3-------|-2-3-----2-3-----|-1-3-----1-3-----|---3-------3-----|
E|--3---------------|-----------------|-----------------|-5-------5-------|

    Fm                C/G               D                 Fm                  
e|------------------|-----------------|-----------------|-----------------|
B|------------------|-----------------|-----------------|-----------------|
G|------------------|-----------------|-----------------|-----------------|
D|------2-3-----2-3-|-----0-2-----0-2-|-----0-2-----0-2-|-----0-2-----0-2-|
A|----3-------3-----|---3-------3-----|---0-------0-----|-----------------|
E|--4-------4-------|-3-------3-------|-2-------2-------|-1-4-----1-4-----|

   CM7/E             Ebdim             Fm6               Fm6
e|-----------------|-----------------|-----------------|------------------|
B|-----0-1-----0-1-|-------1-------1-|-------1-------1-|-------1-------1-o|
G|---0-------0-----|-----2-------2---|-----1-------1---|-----1-------1----|  
D|-2-------2-------|-1-4-----1-4-----|-0-3-----0-3-----|-0-3-----0-3------|  
A|-----------------|-----------------|-----------------|-----------------o|  
E|-----------------|-----------------|-----------------|------------------|  



=Chorus 1 (Pretty much just chords)=

C        Am       Em                F
Free me, free me, free me from this world
          Dm           G               E             Am
I don't belong here it was a mistake imprisoning our souls
        F        G                 
Can you free me? Free me from this 



=Bridge/Key Change Thing=

   Am                F                 G
e|-0-0-0-0-0-0-0-0-|-----------------|-3-3-3-3-3-3-3-3-|-0-0-0-0-0-0-0-0-|
B|-1-1-1-1-1-1-1-1-|-5-5-5-5-3-3-1-1-|-0-0-0-0-0-0-0-0-|-3-3-3-3-1-1-0-0-|
G|-2-2-2-2-2-2-2-2-|-2-2-2-2-2-2-2-2-|-0-0-0-0-0-0-0-0-|-0-0-0-0-0-0-0-0-| 
D|-2-2-2-2-2-2-2-2-|-3-3-3-3-3-3-3-3-|-0-0-0-0-0-0-0-0-|-2-2-2-2-2-2-2-2-|
A|-0-0-0-0-0-0-0-0-|---------3-3-3-3-|-2-2-2-2-2-2-2-2-|-2-2-2-2-2-2-2-2-|
E|-0-0-0-0-0-0-0-0-|-----------------|-3-3-3-3-3-3-3-3-|-0-0-0-0-0-0-0-0-|
   World________

   F                 A                 Dm/A              Bb
e|-1-1-1-1-1-1-1-1-|-0-0-0-0-0-0-0-0-|-1-1-1-1-0-0-0-0-|-1-1-1-1-1-1-1-1-|
B|-1-1-1-1-1-1-1-1-|-2-2-2-2-2-2-2-2-|-3-3-3-3-3-3-3-3-|-3-3-3-3-3-3-3-3-|
G|-2-2-2-2-2-2-2-2-|-2-2-2-2-2-2-2-2-|-2-2-2-2-2-2-2-2-|-3-3-3-3-3-3-3-3-|
D|-3-3-3-3-3-3-3-3-|-2-2-2-2-2-2-2-2-|-0-0-0-0-0-0-0-0-|-3-3-3-3-3-3-3-3-|
A|-3-3-3-3-3-3-3-3-|-0-0-0-0-0-0-0-0-|-0-0-0-0-0-0-0-0-|-1-1-1-1-1-1-1-1-|
E|-1-1-1-1-1-1-1-1-|-0-0-0-0-0-0-0-0-|-----------------|-----------------|


[C | A | A | A]




=Chorus 2 (Pretty much just chords)=

D        Bm       F#m               G
Free me, free me, free me from this world
          Em           A               F#            Bm
I don't belong here it was a mistake imprisoning our souls
        G        A                 D
Can you free me? Free me from this world?


*Just play basically this ^ until the outro**


=Outro=

**Real big thanks to this guy (https://www.youtube.com/watch?v=yrJ5UFjj-E0) Because I tried so hard and just
  couldn't get it exact! Thanks!!**

[D | DM7 | D7 | GM7 | Gm | D/A | E/G# | Gdim | D/F# | Fdim | Em7 | Em7b5]
 2   2     2    2     3    2     0      X      2      X      0     0
 3   2     1    0     3    3     5      5      3      3      3     3
 2   2     2    0     0    2     4      3      2      1      0     3
 0   0     0    0     0    0     2      2      0      0      0     0
 X   X     X    2     1    0     X      X      0      X      2     2
 X   X     X    3     3    X     4      3      2      1      0     0

**And then for the last D just arpeggio over it with something like this:**

e|---------0----------------2-|
B|-------3--------------------|
G|-----2----------------------|
D|---0------------------------|
A|-0--------------------------|
E|----------------------------|

=============================================================================================================

CHORDS USED:

C:     x32010
Ebdim: xx1242
Ddim:  xx0131
CM7:   x35453
C7:    x35353
F:     133211
Fm:    133111
D:     xx0232
CM7/E: 035453
Fm6:   x33131
Am:    x02210
Em:    022000
Dm:    xx0231
E:     022100
A:     002220
Dm/A:  x00231
Bb:    x13331
Bm:    x24432
F#m:   244222
F#:    244322
DM7:   xx0222
D7:    xx0212
GM7:   320002
Gm:    310033
D/A:   x00232
E/G#:  4x2450
Gim:   3x235x
D/F#:  200232
Fdim:  1x013x
Em7:   020030
Em7b5: 020330




            
            
Suggest correction
Creating personal tab
Creating personal tab
You can edit any tab online and save it as your Personal.

You can edit, replace or remove any tab part or add personal notes – all changes will be seen only by you.

Personal tabs can be accessed anytime from any device, even offline.
Learn more »
Give kudos to tab author, rate the tab!
1 2 3 4 5
comments
print report bad tab
guest
Wanna post a correction for this tab? Suggest correction