Oops, an error
Loading. Please wait.

Follow Me bass

version 2
version 2

Whole song

  • This song is meant to be played with half-step dow... Show more

Interactive

by Muse
791 views 3 this week
1 commentread comment
1 2 3 4 5
2 more votes to show rating
add to favorites
×
Save as Personal and add changes to this tab that will be seen only by you. Learn more ›
×
You can save this tab as Personal to edit and correct it or add notes. All changes will be seen only by you. Learn more »
launch autoscroll
font size
0
reset
guitar tuner
edit
Autoscroll
slow
fast
+/-
esc
set tempo
stop
Author
Difficulty
 
Band: Muse
Song: Follow Me
Album: The 2nd Law 
Instrument: Bass
Bassist: Chris Wolstenholme 
Standard Tuning: EADG
Tabbed by: Anthony J Rhodes (tonyrhodey)

(Please don't criticize, this is my first bass tab done by ear) 

\ = Down Slides
/ = Up Slides


Bass begins at Pre-Chorus 2 (1:11)

G|-----------------------------------------------------------------------|
D|-6-6-6-6-6-6-6-6-6-6-6-6-6-6-6-6---------------------------------------|
A|---------------------------------3-3-3-3-3-3-3-3-3-3-3-3-3-3-3-3-------|
E|-----------------------------------------------------------------------|

G|-----------------------------------------------------------------------| 
D|---------------------------------5-5-5-5-5-5-5-5-5-5-5-5-5-5-5-5-------|
A|-6-6-6-6-6-6-6-6-6-6-6-6-6-6-6-6---------------------------------------| 
E|-----------------------------------------------------------------------|

G|-----------------------------------------------------------------------| 
D|-----------------------------------------------------------------------|
A|---------------------------------8-8-8-8-8-8-8-8-8-8-8-8-8-8-8-8-------| 
E|-3-3-3-3-3-3-3-3-3-3-3-3-3-3-3-3---------------------------------------|

G|-----------------------------------------------------------------------| 
D|-----------------------------------------------------------------------|
A|-6-6-6-6-6-6-6-6-6-6-6-6-6-6-6-6-5-5-5-5-5-5-5-5-5-5-5-5-5-5-5-5-------| 
E|-----------------------------------------------------------------------|

G|-----------------------------------------------------------------------| 
D|-5-5-5-5-5-5-5-5-------------------------------------------------------|
A|-----------------------------------------------------------------------| 
E|-----------------------------------------------------------------------|

Chorus 1

G|-----------------------------------------------------------------------| 
D|-----------------------------------------------------------------------|
A|---------------------------------3---3---3---3---3---3---15\-----------| 
E|-4---4---4---4---4---4---4---4-----------------------------------------|

G|-----------------------------------------------------------------------| 
D|-----------------------------------------------------------------------|
A|---------------------------------6---6---6---6-------------------------| 
E|-4---4---4---4---4---4---4---4-------------------3---3---3---3---------|

G|-----------------------------------------------------------------------| 
D|-----------------------------------------------------------------------|
A|---------------------------------3---3---3---3---3---3---3---3---------| 
E|-4---4---4---4---4---4---4---4-----------------------------------------|

G|-----------------------------------------------------------------------| 
D|-----------------------------------------------------------------------|
A|/8---8---8---8---8---8---8---8-----------------------------------------| 
E|---------------------------------6---6---6---6---6---6---6---6---------|

Bridge

G|-----------------------------------------------------------------------| 
D|-----------------------------------------------------------------------|
A|---------------------------------3-3-3-3-3-3-3-3-3-3-3-3-3-3-3-3-------| 
E|-4-4-4-4-4-4-4-4-4-4-4-4-4-4-4-4---------------------------------------|

  *13 not 1 and 3
G|-----------------------------------------------------------------------| 
D|-----------------------------------------------------------------------|
A|-6-6-6-6-6-6-6-6-6-6-6-6-6-6-6-6-13(x32)-------------------------------| 
E|-----------------------------------------------------------------------|

G|-----------------------------------------------------------------------| 
D|-----------------------------------------------------------------------|
A|---------------------------------3-3-3-3-3-3-3-3-3-3-3-3-3-3-3-3-------| 
E|-4-4-4-4-4-4-4-4-4-4-4-4-4-4-4-4---------------------------------------|

  *13 not 1 and 3, 15 not 1 and 5, 17 not 1 and 7
G|-----------------------------------------------------------------------| 
D|-----------------------------------------------------------------------|
A|-6-6-6-6-6-6-6-6-6-6-6-6-6-6-6-6-13(x12)-15(x4)-17(x16)----------------| 
E|-----------------------------------------------------------------------|

Chorus 2

  *15 not 1 and 5
G|-----------------------------------------------------------------------| 
D|-----------------------------------------------------------------------|
A|---------------------------------3---3---3---3---3---3---3---3---15\---| 
E|-4---4---4---4---4---4---4---4-----------------------------------------|

G|-----------------------------------------------------------------------| 
D|-----------------------------------------------------------------------|
A|---------------------------------6---6---6---6-------------------------| 
E|-4---4---4---4---4---4---4---4-------------------3---3---3---3---------|

  *15 not 1 and 5
G|-----------------------------------------------------------------------| 
D|-----------------------------------------------------------------------|
A|---------------------------------3---3---3---3---3---3---3---3---15\---| 
E|-4---4---4---4---4---4---4---4-----------------------------------------|

G|-----------------------------------------------------------------------| 
D|-----------------------------------------------------------------------|
A|/8---8---8---8---8---8---8---8-----------------------------------------| 
E|---------------------------------6---6---6---6---6---6---6---6---------|

Outro

  *Let the 6 ring but play it everytime Matt screams
G|-----------------------------------------------------------------------| 
D|-----------------------------------------------------------------------|
A|-6---------------------------------------------------------------------| x3
E|-----------------------------------------------------------------------|

G|-----------------------------------------------------------------------| 
D|-----------------------------------------------------------------------|
A|-6-------------------------------6-------------------------------------| 
E|-----------------------------------------------------------------------|

            
            
Suggest correction
Creating personal tab
Creating personal tab
You can edit any tab online and save it as your Personal.

You can edit, replace or remove any tab part or add personal notes – all changes will be seen only by you.

Personal tabs can be accessed anytime from any device, even offline.
Learn more »
Give kudos to tab author, rate the tab!
1 2 3 4 5
comments
print report bad tab
1 comment total.
0 reply
panda92 197 Aug 02, 2014 09:37 AM

Very accurate! Cheers!

guest
You may want to rate the tab now too:
select rating
Wanna post a correction for this tab? Suggest correction