Oops, an error
Loading. Please wait.
We have an official Hysteria tab made by UG professional guitarists. Check out the tab »
×
by Muse
221,145 views 102 this week
10 commentsread comments
1 2 3 4 5
x 15
add to favorites
×
Save as Personal and add changes to this tab that will be seen only by you. Learn more ›
×
You can save this tab as Personal to edit and correct it or add notes. All changes will be seen only by you. Learn more »
launch autoscroll
font size
0
reset
how to read this tab
guitar tuner
backing track
0:00
0:00
edit
Autoscroll
slow
fast
+/-
esc
set tempo
stop
Author
Unregistered
[Intro]

guitar
e|---------------------------------------------------------------------------|
B|-10—12b13rb12-10-9---12b13rb12-10----12b13br12-10-----12b13br12b13br12-----|
G|---------------------------------10--------------9-------------------------|[x2]
D|---------------------------------------------------------------------------|
A|---------------------------------------------------------------------------|
E|---------------------------------------------------------------------------|


[Verse]

 Bass and drums only…    


[Chorus]

      C    G     Dm      Am
e|---3-----5------5------5---|
B|---5-----5------6------5---|
G|---5-----4------7------5---|
D|---3-----5------7------7---|
A|---3-----5------5------7---|
E|---5-----3------5------5---|


[Instrumental]

guitar
e|---------------------------------------------------------------------------|
B|-10—12b13rb12-10-9---12b13rb12-10----12b13br12-10-----12b13br12b13br12-----|
G|---------------------------------10--------------9-------------------------|[x2]
D|---------------------------------------------------------------------------|
A|---------------------------------------------------------------------------|
E|---------------------------------------------------------------------------|


[Verse]

 Bass and drums only…    


[Chorus]

      C    G     Dm      Am
e|---3-----5------5------5---|
B|---5-----5------6------5---|
G|---5-----4------7------5---|
D|---3-----5------7------7---|
A|---3-----5------5------7---|
E|---5-----3------5------5---|


[Bridge]

bass and drums


[Solo]

e|-------12------13--------13-12------12------13------13-12---------13-------|\
B|-10-10----10-10-----10-10--------9-9-----9-9-----9-9--------11-11----------| \
G|---------------------------------------------------------------------------|  |
D|---------------------------------------------------------------------------|  |
A|---------------------------------------------------------------------------|  |
E|---------------------------------------------------------------------------|  |
                                                                                |  [2x]
e|-------14-------14-13--------12--------13---------13-12--------------------|  |
B|-11-11----11-11--------10-10-----10-10------10-10--------------------------|  |
G|---------------------------------------------------------------------------|  |
D|---------------------------------------------------------------------------|  |
A|---------------------------------------------------------------------------| /
E|---------------------------------------------------------------------------|/

e|-8-0-0—-7-0-0—-5-0-0—-4-0-0—-3-0-0—-1-0-0-|
B|------------------------------------------|
G|------------------------------------------|
D|------------------------------------------|
A|------------------------------------------|
E|------------------------------------------|

e|-----------------------------------------------------------------------------|
B|-12-------13-12-10-12-------12-13-15------15-13-12-13-------15-13-12-13------|
G|---13----------------13-------------13---------------14-----------------14---|
D|-----14----------------14-------------14---------------14-----------------14-|
A|-----------------------------------------------------------------------------|
E|-----------------------------------------------------------------------------|

e|---------------------------------------------------------------------------|
B|-13-12-10-12--------12-13-15b~~---15-13-12-13------------------------------|
G|-------------13------------------------------14----------------------------|
D|---------------14------------------------------14--------------------------|
A|---------------------------------------------------------------------------|
E|---------------------------------------------------------------------------|


[Chorus]

      C    G     Dm      Am
e|---3-----5------5------5---|
B|---5-----5------6------5---|
G|---5-----4------7------5---|
D|---3-----5------7------7---|
A|---3-----5------5------7---|
E|---5-----3------5------5---|


[Bridge]

bass and drums



************************************

| b   Bend
| br  Bend release
| ~   Vibrato

************************************

            
            
Suggest correction
Creating personal tab
Creating personal tab
You can edit any tab online and save it as your Personal.

You can edit, replace or remove any tab part or add personal notes – all changes will be seen only by you.

Personal tabs can be accessed anytime from any device, even offline.
Learn more »
comments
print report bad tab
10 comments total. Showing first comments.
0 reply
andrewbiles 4,785 Oct 27, 2003 07:00 PM

Your C chord is really odd, and I'm not sure about the intro, haven't got round to the solo yet

0 reply
TheVinesRule 860 Oct 28, 2003 07:00 PM

the C chord is right, but you tabbed it wrong :p: (-35553) The solo isnt quite right, but when i tried to tab it i didnt get very far :(

http://www.ultimate-guitar.com/tabs/m/muse/hysteria_crd.htm :)

0 reply
k-7 10 Aug 03, 2004 08:00 PM

Muse will be playing Curiosa until mid-August, and the new single "Hysteria" will be released in the States around the same time. Check that song out here!!

http://www.bandbuilder.com/muse/ind...ref_code=D51713

guest
Wanna post a correction for this tab? Suggest correction