Oops, an error
Loading. Please wait.

I Belong To You bass

version 2
version 2

Whole song

Interactive

by Muse
1,689 views 1 this week
3 commentsread comments
1 2 3 4 5
1 last vote to show rating
add to favorites
×
Save as Personal and add changes to this tab that will be seen only by you. Learn more ›
×
You can save this tab as Personal to edit and correct it or add notes. All changes will be seen only by you. Learn more »
launch autoscroll
font size
0
reset
guitar tuner
edit
Autoscroll
slow
fast
+/-
esc
set tempo
stop
Band: Muse
Song: I Belong To You
Album: The Resistance (2009)
Bassist: Chris Wolstenholme
Tuning: Dropped D

[0:13]

G|----------|--------5-5-4-5-7~---|--------5-5-5-----|
D|----------|----5-5--------------|----5-5-----------|
A|----------|6-6------------------|6-6---------------|
D|0~--------|---------------------|------------------|

Verse:

G|-------------------|----------------------|
D|-------------10\---|13--13-10-13-10-------|
A|8--8-11-8-11-------|----------------10\---|
D|-------------------|----------------------| x3

G|----------|--------5-5-4-5-7~---|--------5-5-5-----|
D|----------|----5-5--------------|----5-5-----------|
A|----------|6-6------------------|6-6---------------|
D|0~--------|---------------------|------------------|

G|-------------------|----------------------|
D|-------------10\---|13--13-10-13-10-------|
A|8--8-11-8-11-------|----------------10\---|
D|-------------------|----------------------| x3

Chorus:

G|-----------22-33-00-------|---------33-33----------|
D|--------00----------00----|------11-------33-00----|
A|----00-----------------11-|---11----------------11-|
D|00------------------------|11----------------------| x2

G|----------|--------5-5-4-5-7~---|--------5-5-5-----|
D|----------|----5-5--------------|----5-5-----------|
A|----------|6-6------------------|6-6---------------|
D|0~--------|---------------------|------------------|

Verse:

G|-------------------|----------------------|
D|-------------10\---|13--13-10-13-10-------|
A|8--8-11-8-11-------|----------------10\---|
D|-------------------|----------------------| x3

Chorus: First two bars are same (x2) but ending is different:

G|----------|--------5-5-4-5-7----|--------5-5-5--5--5---5---|-----------|
D|----------|----5-5--------------|----5-5-------------------|-----------|
A|----------|6-6------------------|6-6-----------------------|-----------|
D|0~--------|---------------------|--------------------------|0~---------|

"Mon Coeur S'Ouvre A Ta Voix" part: 

G|---------------------------------------------------|
D|---------------------------------------------------| 
A|---------------------------------------------------|     
D|7----8--8--9---9-11-11---12~----9~----14~----7~----|

G|------------------------------|
D|------------------------------|
A|------------------------------|
D|0----0-4----4-8----8-7-7-7-7\-|

G|------------------------------|
D|------------------------------|
A|------------------------------|
D|0----2-4----4-9----9-8--------|

G|---------------------------------------------------|
D|---------------------------------------------------| 
A|---------------------------------------------------|     
D|7----8--8--9---9-11-11---12~----9~----14~----7~----|

And again....

G|--------5-5-5-----|
D|----5-5-----------|
A|6-6---------------|
D|------------------|

Verse: (clarinet solo) x3

Chorus: (play it like You did before Mon Coeur)

/  slide up
\  slide down
h  hammer-on
p  pull-off
~  let ring

            
            
Suggest correction
Creating personal tab
Creating personal tab
You can edit any tab online and save it as your Personal.

You can edit, replace or remove any tab part or add personal notes – all changes will be seen only by you.

Personal tabs can be accessed anytime from any device, even offline.
Learn more »
Give kudos to tab author, rate the tab!
1 2 3 4 5
comments
print report bad tab
3 comments total.
0 reply
MarianMUSEr 33 Feb 01, 2015 11:36 AM

Nice tab, but I think that the verse is different to ho Chris plays it:

You tabbed:
G|-------------------|----------------------|
D|-------------10\---|13--13-10-13-10-------|
A|8--8-11-8-11-------|----------------10\---|
D|-------------------|----------------------|

In my opinion it's more like this and by the way easier than jumping from 8 to 11:
G|-------------------|----------------------|
D|-----6----6--10\---|13--13-10-13-10-------|
A|8--8----8----------|----------------10\---|
D|-------------------|----------------------|

0 reply
4useless 2,618 Feb 02, 2015 09:44 PM

11th fret on A is same note as 6th fret on high D so there's no big difference except for finger positioning and tonal qualities (same note on highest strings always sounds "higher" or "deeper" if play that note on some lower string). Personally I prefer to play lines on lower strings and (if possible) in 4 fret range because then I don't need to move my right hand at all :)

0 reply
MarianMUSEr 33 Feb 03, 2015 06:27 AM

Oh well I'm sorry, I just realized, that I read and played it as 13th fret, so it's my mistake, thanks. :)

guest
You may want to rate the tab now too:
select rating
Wanna post a correction for this tab? Suggest correction