Oops, an error
Loading. Please wait.
We have an official In Your World tab made by UG professional guitarists. Check out the tab »
×
by Muse
2,551 views 1 this week
no commentswrite comment
1 2 3 4 5
x 3
add to favorites
×
Save as Personal and add changes to this tab that will be seen only by you. Learn more ›
×
You can save this tab as Personal to edit and correct it or add notes. All changes will be seen only by you. Learn more »
launch autoscroll
font size
0
reset
how to read this tab
guitar tuner
backing track
0:00
0:00
edit
Autoscroll
slow
fast
+/-
esc
set tempo
stop
Author
Difficulty
_______________________________________________________________
Muse - In Your World
                        Length: 2:34
Album: Live on Hullabaloo CD 2 and DVD 1
_______________________________________________________________


Tuning is E A E G B e


First the piano intro:
e|-5-0-10-0-8-0-7-0-5-0-4-0-5-0-7-0-|
B|----------------------------------|
G|----------------------------------|  x3
D|----------------------------------|
A|----------------------------------|
E|----------------------------------|

e|-5-0-4-0-5-0-7-0-8-0-10-0-8-0-7-0-|
B|----------------------------------|
G|----------------------------------|
D|----------------------------------|
A|----------------------------------|
E|----------------------------------|

Play this twice, the second time this a low part comes in:
Live (Hullabaloo) intro is the chorus.

  Am                F                 Dm
e|-----------------|-----------------|-----------------|
B|-----------------|-----------------|-----------------|
G|---------5-------|---------2-------|-----------------|
E|-5---5-------5---|-1---1-------1---|-----------------|
A|---7---7---7---7-|---3---3---3---3-|-5---5---8---5---|
E|-----------------|-----------------|---5---5---5---5-|

   E7
e|------------------|
B|------------------|
G|----------1-------|
D|-0---0--------0---|
A|---2----2---2---2-| 
E|------------------| 

Main riff

e|-----------------------------------------|
B|-----------------------------------------|
G|-----------------------------------------|
E|-5p0-h10p0-h8p0-h7p0-h5p0-h4p0-h5p0-h7p0-| x3
A|-----------------------------------------|
E|-----------------------------------------|

e|-----------------------------------------|---|
B|-----------------------------------------|---|
G|-----------------------------------------|---|
E|-5p0-h4p0-h5p0-h7p0-h8p0-h10p0-h8p0-h7p0-|-5-|
A|-----------------------------------------|---|
E|-----------------------------------------|---|
 

Here without all the h's  and p's, clean.
G|-------------------------|    |-------------------------|---|
E|-5--10--8--7--5--4--5--7-| x3 |-5--4--5--7--8--10--8--7-|-5-|
A|-------------------------|    |-------------------------|---|

Verse: (All Palm Muted)
e|-----------------------------|-----------------------------|
B|-----------------------------|-----------------------------|
G|-----------------------------|-----------------------------|
E|-----------------------------|---------------------7-7-8-8-|
A|-0-0-0-0-0-0-0-0-0-0-5-5-7-7-|-8-8-8-8-8-8-8-8-8-8---------|
E|-----------------------------|-----------------------------|
                         I`m     hurting you a-
                         Like    everything is

e|-----------------------------|-----------------------------|
B|-----------------------------|-----------------------------|
G|-----------------------------|-----------------------------|
E|---------------------4-4-5-5-|-----------------------------|
A|-5-5-5-5-5-5-5-5-5-5---------|-7-7-7-7-7-7-7-7-7-7-7-7-7-7-|
E|-----------------------------|-----------------------------|
  gain.                      To lonely to pretend.
  new.                       I  promise you to


Pre-chorus
e|------------------------|---------------------------|
B|------------------------|---------------------------|
G|-5-----------7----------|-9-----------10------------|
E|-3-----------5----------|-7------------8------------|
A|-3--0--2--3--5--------5-|-7--------10--8----------8-|
E|----------------7--8----|----7--8---------10--12----|

e|------------------------|------------------------|
B|------------------------|----------------6--6----|
G|------------------------|----------------5--5----|
E|-5-----------5----------|-4--1--0--1--4--------0-|
A|----8--7--8-----8--7--8-|----------------------0-|
E|------------------------|------------------------|

Chorus:   (This x3)
e|----------------|--------------|-------------|--------------| play the
B|----------------|--------------|-------------|------10-10---| 0`s soft.
G|--------10-10---|--------9-9---|-------9-9---|-------8--8---|
E|--8--8---8--8-0-|--8--8--7-7-0-|-5--5--7-7-0-|-5--5--8--8-0-|
A|-10-10---8--8-0-|-10-10--7-7-0-|-7--7--7-7-0-|-7--7-------0-|
E|--8--8----------|--8--8--------|-5--5--------|-5--5---------|

Main riff, this time played once
Verse 2: only bass but same riff
Pre-chorus
Chorus
Main riff, also played once

Solo:  ( Clean version, but it is left-hand-tapping)
e|-------------------------|-------------------------------|
B|-------------------------|-------------------------------|
G|-------------------------|-------------------------------|
E|-5--4--5--7--8--7--8--10-|-12--8--10--12--13--10--12--13-|
A|-------------------------|-------------------------------|
E|-------------------------|-------------------------------|

e|--------------------------------|---------------------------|
B|--------------------------------|---------------------------|
G|--------------------------------|---------------------------|
E|-15--13--12--13--12--10--12--10-|-12--10--8--10--8--7--8--7-|
A|--------------------------------|---------------------------|
E|--------------------------------|---------------------------|

e|-------------|
B|-------------|
G|-------------|
E|-5- fade out |
A|-------------|
E|-------------|

Good luck!

            
            
Suggest correction
Creating personal tab
Creating personal tab
You can edit any tab online and save it as your Personal.

You can edit, replace or remove any tab part or add personal notes – all changes will be seen only by you.

Personal tabs can be accessed anytime from any device, even offline.
Learn more »
Give kudos to tab author, rate the tab!
1 2 3 4 5
comments
print report bad tab
guest
You may want to rate the tab now too:
select rating
Wanna post a correction for this tab? Suggest correction