Oops, an error
Loading. Please wait.

Jfk Defector intro tab

version 1
version 1

Intro

Whole song

by Muse
100 views 1 this week
no commentswrite comment
1 2 3 4 5
3 more votes to show rating
add to favorites
×
Save as Personal and add changes to this tab that will be seen only by you. Learn more ›
×
You can save this tab as Personal to edit and correct it or add notes. All changes will be seen only by you. Learn more »
launch autoscroll
font size
0
reset
how to read this tab
guitar tuner
edit
Autoscroll
slow
fast
+/-
esc
set tempo
stop
Song: [JFK]/Defector Intro
Artist: Muse
Album: Drones

NOTE: This is the intro riff to the song "Defector"
with the added bonus of the track [JFK] which
leads into Defector.

Tuning: Drop D  No Capo  Highly Distorted guitar

[JFK]
     ^  v    ^  v    ^  v    ^  v    ^  v   ^  v
e|---x-------x-------x-------x-------x------x---------|
B|---x-------x-------x-------x-------x------x---------|
G|---x-------x-------x-------x-------x------x---------|
D|---x-------x-------x-------x-------x------x---------|
A|---x-------x-------x-------x-------x------x---------|
D|---0--0.---0--0.---0--0.---0--0.---0--0.--0--0.-----|

     ^  v    ^  v    ^  v    ^  v    ^  v    ^  v
e|---x-------x-------x-------x-------x-------x-------15/x------|
B|---x-------x-------x-------x-------x-------x-------15/x------|
G|---x-------x-------x-------x-------x-------x-------15/x------|
D|---x-------x-------x-------x-------x-------x-----------------|
A|---x-------x-------x-------x-------x-------x-----------------|
D|---4--4.---2--2.---0--0.---0--0.---4.--4.--2--2.-------------|

[Defector Intro Part 1]
e|-----------------------------------------------|
B|-----------------------------------------------|
G|-----------------------------------------------|
D|-----------------------------------------------| x2
A|-----------------------------------------------|
D|---0--12/x--0--12/x--0--0--12/x--0--12/x-------|

[Defector Intro Part 2]
This is played only once before the lyrics come in and while you 
still play the same riff, but this is an intro tab, so there
is no repeat here.
e|---------------------------------------------------x-x-x-5-----|
B|---------------------------------------------------x-x-x-6-----|
G|---------------------------------------------------x-x-x-5-----|
D|-----------------------------------6-6--7-7-7-7----------------|
A|-----------------------------------6-6--7-7-7-7----------------|
D|---0--12/x--0--12/x--0--0--12/x--0-6-6--7-7-7-7----------------|

e|---6-6-6-6-6-6-6-6--7-7-7-----------------|
B|---7-7-7-7-7-7-7-7--8-8-8-----------------|
G|---6-6-6-6-6-6-6-6--7-7-7-----------------|
D|------------------------------------------|
A|------------------------------------------|
D|----------------------------4-5-7-8--7----|

********************************************

^   Upstroke
v   Downstroke
.   Staccato
/x  Slide to nowhere

********************************************


            
            
Suggest correction
Creating personal tab
Creating personal tab
You can edit any tab online and save it as your Personal.

You can edit, replace or remove any tab part or add personal notes – all changes will be seen only by you.

Personal tabs can be accessed anytime from any device, even offline.
Learn more »
Give kudos to tab author, rate the tab!
1 2 3 4 5
comments
print report bad tab
guest
You may want to rate the tab now too:
select rating
Wanna post a correction for this tab? Suggest correction