Oops, an error
Loading. Please wait.

Minimum tab

version 3
version 3

Whole song

Interactive

by Muse
46 views 1 this week
no commentswrite comment
1 2 3 4 5
3 more votes to show rating
add to favorites
×
Save as Personal and add changes to this tab that will be seen only by you. Learn more ›
×
You can save this tab as Personal to edit and correct it or add notes. All changes will be seen only by you. Learn more »
launch autoscroll
font size
0
reset
how to read this tab
guitar tuner
edit
Autoscroll
slow
fast
+/-
esc
set tempo
stop
Author
Artist: Muse
Song: Minimum (Live)
Show: PinkPop 2000 (https://www.youtube.com/watch?v=5d6dq4Y7r-g&ab_channel=FutchDucknl)
Tuning: EADGBe

Coolest riff ever? Beats Psycho and even Plug In Baby in my opinion! Sounds like an early Hyper Music lol

---
Intro Riff:

e|-----------------------------------------------------------|
B|---8--------------------------------8----------------------|
G|---7--------------------------------7----------------------|
D|---6--------------------------------6----------------------|
A|---7----------------5---7-----------7---------------5p0----|
E|-0--------0-5---7-----------x-x-0----------0-5---7-----h3--|


e|---------------------------------------------------------------|
B|---8----------------------------------8------------------------|
G|---7----------------------------------7--------2bp0------------|
D|---6----------------------------------6-------------2p0--------|
A|---7----------------5p0h5h7-----------7-----------------2p0----|
E|-0--------0-5---7-------------0---0---------0---------------3--|

e|-------------------------------------------------------------|
B|---8--------------------------------8------------------------|
G|---7--------------------------------7------------------------|
D|---6--------------------------------6------------------------|
A|---7----------------5---7-----------7----------------5---7---|
E|-0--------0-5---7-----------x-x-0----------0-5---7-----------|


e|-------------------------------------------------------------|
B|---8--------------------------------x------------8--8--8--8--|
G|---7--------------------------------x------------7--7--7--7--|
D|---6--------------------------------x------------6--6--6--6--|
A|---7----------------5---7-----------x------------7--7--7--7--|
E|-0--------0-5---7---------------0----------------------------|


e|-----------------------------------|
B|---8-------------------------------|
G|---7-------------------------------|
D|---6-------------------------------|
A|---7----------------5---7----------|
E|-0--------0-5---7---------------0--|


[Play as many times as Matt does for each note]
e|---|---|---|
B|---|---|-7-|
G|-6-|-7-|-9-|
D|-x-|-x-|-9-|
A|-4-|-5-|---|
E|---|---|---|

[open strum just before actual song starts]
e|---|
B|---|
G|-0-|
D|-0-|
A|---|
E|---|


---
Actual Intro: (We know you're not actually here for this)


e|--------10-----10---|---------12-----12---|
B|------0------0------|-------0------0------|
G|11-11-----11-----11-|h12-12-----12-----12-|
D|--------------------|---------------------|
A|--------------------|---------------------|
E|--------------------|---------------------|

E|---------12-----12---|---------14-----14----|
E|-------0------0------|-------0------0-------|
E|-13-13-----13-----13-|-14-14-----14-----14--|
E|---------------------|----------------------|
E|---------------------|----------------------|
E|---------------------|----------------------|

E|--------------------|---------12-----12----|
E|------0-------------|-------0------0-------|
E|13-13---------------|----12-----12-----12--|
E|--------------------|----------------------|
E|--------------------|----------------------|


----
Verse: Without Matt having to fuck with his amp

e|--------10-----10---|---------12-----12---|
B|------0------0------|-------0------0------|
G|11-11-----11-----11-|-12-12-----12-----12-|
D|--------------------|---------------------|
A|--------------------|---------------------|
E|--------------------|---------------------|

E|---------12-----12---|---------14-----14----|
E|-------0------0------|-------0------0-------|
E|-13-13-----13-----13-|-14-14-----14-----14--|
E|---------------------|----------------------|
E|---------------------|----------------------|
E|---------------------|----------------------|

E|--------12-----12---|---------12-----12----|
E|------0------0------|-------0------0-------|
E|13-13-----13-----13-|-12-12-----12-----12--|
E|--------------------|----------------------|
E|--------------------|----------------------| Repeat this part twice, but the second 
                                               time, for the last bar play this:

e|-12--------------|
B|-0---------------|
G|-12--------------|
D|-----------------|
A|-----------------|
E|-----------------|


---
Chorusy thing:

e|-----------------|-----------------|
B|-x-x-x-x-x-x-x-x-|-x-x-x-x-x-x-x-x-|
G|-x-x-x-x-x-x-x-x-|-x-x-x-x-x-x-x-x-|
D|-x-x-x-x-x-x-x-x-|-x-x-x-x-x-x-x-x-|
A|-x-x-x-x-x-x-x-x-|-x-x-x-x-x-x-x-x-|
E|-x-x-x-x-x-x-x-x-|-x-x-x-x-x-x-x-x-|

e|-----------------|
B|-----------------|
G|-----------------|
D|-----------------| x4
A|-2-----------0-1-|
E|----0--1--2------|

e|-10\-------------|-10\-------------|-10\-------------|-10\-------------|
B|-9\\-------------|-10\-------------|-9\\-------------|-10\-------------|
G|-----------------|-----------------|-----------------|-----------------| (This part is really difficult)
D|-9\\-------------|-9\\-------------|-9\\-------------|-9\\-------------|
A|-------------0-1-|-------------0-1-|-------------0-1-|-------------0-1-|
E|----0--1--2------|----0--1--2------|----0--1--2------|----0--1--2------|



----
Verse: 

e|--------10-----10---|---------12-----12---|
B|------0------0------|-------0------0------|
G|11-11-----11-----11-|-12-12-----12-----12-|
D|--------------------|---------------------|
A|--------------------|---------------------|
E|--------------------|---------------------|

E|---------12-----12---|---------14-----14----|
E|-------0------0------|-------0------0-------|
E|-13-13-----13-----13-|-14-14-----14-----14--|
E|---------------------|----------------------|
E|---------------------|----------------------|
E|---------------------|----------------------|

E|--------12-----12---|---------12-----12----|
E|------0------0------|-------0------0-------|
E|13-13-----13-----13-|-12-12-----12-----12--|
E|--------------------|----------------------|
E|--------------------|----------------------| Repeat this part twice, but the second time, 
                                               for the last bar play this:

e|-12--------------|
B|-0---------------|
G|-12--------------|
D|-----------------|
A|-----------------|
E|-----------------|



---
Chorusy thing:

e|-----------------|-----------------|
B|-----------------|-----------------|
G|-----------------|-----------------|
D|-Ad-lib-pick-scratching------------|
A|-----------------|-----------------|
E|-----------------|-----------------|


e|-----------------|
B|-----------------|
G|-----------------|
D|-----------------| x2
A|-2-----------0-1-|
E|----0--1--2------|

e|-10\-------------|
B|-10\-------------|
G|-----------------|
D|-9\\-------------| x2
A|-------------0-1-|
E|----0--1--2------|

e|-----------------|
B|-14\-------------|
G|-12\-------------|
D|-11\-------------| x2
A|-------------0-1-|
E|----0--1--2------|

e|-----------------|
B|-14\-------------|
G|-12\-------------|
D|-10\-------------|  
A|-------------0-1-|
E|----0--1--2------|

e|-----------------|
B|-x---------------|
G|-x---------------|
D|-x---------------| 
A|-------------0-1-|
E|----0--1--2------|


----
Solo: C'mon how am I supposed to tab this?

e|-----------------|    e|-----------------|                                      e|--------| 
B|-----------------|    B|-----------------|                                      B|--------| 
G|-----------------|    G|-----------------|                                      G|--10b11-| 
D|-----------------| x2 D|-----------------| Ad lib sliding up the neck and stuff D|--x--x--| 
A|-2-----------0-1-|    A|-4-----------0-1-|                                      A|--8b-9--| 
E|----0--1--2------|    E|----0--1--2------|                                      E|--------| 

e|-----------------|
B|-----------------|
G|-----------------|
D|-----------------| x3
A|-2-----------0-1-|
E|----0--1--2------|

e|-----------------|
B|---------------\-|
G|---------------\-|
D|---------------\-| 
A|-2-------------\-|
E|----0--1--2------|

e|-----------------|
B|-----------------|
G|-----------------|
D|-----------------| x3
A|-2-----------0-1-|
E|----0--1--2------|

e|-----------------|
B|-------------x-x-|
G|-------------x-x-|
D|-------------x-x-| 
A|-2-----------x-x-|
E|----0--1--2------|

e|-----------------|
B|---------x-x-x-x-|
G|-x-------x-x-x-x-|
D|-9b11----x-x-x-x-| x3
A|-x-------x-x-x-x-|
E|-----------------|

e|-----------------|
B|-------------x-x-|
G|-------------x-x-|
D|-------------x-x-| 
A|-2-----------x-x-|
E|----0--1--2------|

e|-----------------|
B|-----------------|
G|-12--------------|
D|-x---------------|
A|-10--------------|
E|-----------------|

            
            
Suggest correction
Creating personal tab
Creating personal tab
You can edit any tab online and save it as your Personal.

You can edit, replace or remove any tab part or add personal notes – all changes will be seen only by you.

Personal tabs can be accessed anytime from any device, even offline.
Learn more »
Give kudos to tab author, rate the tab!
1 2 3 4 5
comments
print report bad tab
guest
You may want to rate the tab now too:
select rating
Wanna post a correction for this tab? Suggest correction