Oops, an error
Loading. Please wait.

Neutron Star Collision bass

version 1
version 1

Whole song

Interactive

by Muse
25,418 views 12 this week
2 commentsread comments
1 2 3 4 5
x 23
add to favorites
×
Save as Personal and add changes to this tab that will be seen only by you. Learn more ›
×
You can save this tab as Personal to edit and correct it or add notes. All changes will be seen only by you. Learn more »
launch autoscroll
font size
0
reset
guitar tuner
edit
Autoscroll
slow
fast
+/-
esc
set tempo
stop
Author
Difficulty
Band: Muse
Song: Neutron Star Collision (Love Is Forever)
Album: Non Album Track (2010). Written for The Twilight Saga Eclipse
Bassist: Chris Wolstenholme
Tuning: Standard

No bass till 0:36

G|-----------------------------------------|
D|-----------------------------------------|
A|--------------------4--4-4~----/8--8-8~--|
E|2--2-2~----/5--5-5~----------------------| x2

G|-----------------------------------------|
D|-----------------------------------------|
A|--------------------4--4-4--4-6-8--8-8~--|
E|2--2-2--2-4-5--5-5~----------------------|

G|-----------------------------------------|
D|-----------------------------------------|
A|--------------------4--4-4~-----4--4-4~--|
E|2--2-2--2-4-5--5-5~----------------------|


1st verse:

G|----------------|----------------|----------------|----------------|
D|----------------|3-333-3-3-333-3-|4-444-4-4-444-4-|6-666-6-6-666-6-|
A|4-444-4-4-444-4-|----------------|----------------|----------------|
E|----------------|----------------|----------------|----------------|

G|----------------|----------------|----------------|----------------|
D|----------------|3-333-3-3-333-3-|4-444-4-4-444-4-|6-666-6-6-666666|
A|4-444-4-4-444-4-|----------------|----------------|----------------|
E|----------------|----------------|----------------|----------------|

G|----------------|----------------|----------------|----------------|
D|----------------|----------------|----------------|----------------|
A|----------------|0-000-0-0-000-0-|1-111-1-1-111-1-|3-333-3-3-333-3-|
E|4-444-4-4-444-4-|----------------|----------------|----------------|

G|----------------|----------------|----------------|----------------|
D|----------------|3-333-3-3-333-3-|4-444-4-4-444-4-|6-666-6-6-666666|
A|4-444-4-4-444-4-|----------------|----------------|----------------|
E|----------------|----------------|----------------|----------------|

1st chorus:

G|----------------|----------------|----------------|----------------|
D|----------------|----------------|--------------1-|3-333-3-3-333333|
A|----------------|0-000-0-0-000-0-|4-444-4-4-444---|----------------|
E|2-222-2-2-222-4-|----------------|----------------|----------------| x3

G|----------------|----------------|----------------|
D|----------------|----------------|----------------|
A|----------------|0-000-0-0-000-0-|4--4-4~---------|
E|2-222-2-2-222-4-|----------------|----------------|

2nd verse/solo: Same as first verse except the last 16th bar. 

G|----------------|
D|6-6-6-6-6-6-6-6-|
A|----------------|
E|----------------| (16th bar)

2nd chorus:

G|----------------|----------------|----------------|----------------|
D|----------------|----------------|--------------1-|3-3-3-3-3-3-3333|
A|----------------|0-0-0-0-0-0-0-0-|4-4-4-4-4-4-4---|----------------|
E|2-2-2-2-2-2-2-4-|----------------|----------------|----------------|

G|----------------|----------------|----------------|---------10(x8)-|
D|----------------|----------------|--------------1-|3-3-3-3/--------|
A|----------------|0-0-0-0-0-0-0-0-|4-4-4-4-4-4-4---|----------------|
E|2-2-2-2-2-2-2-4-|----------------|----------------|----------------|

G|----------------|----------------|----------------|----------------|
D|----------------|----------------|--------------1-|3-3-3-3-3-3-3333|
A|----------------|0-0-0-0-0-0-0-0-|4-4-4-4-4-4-4---|----------------|
E|2-2-2-2-2-2-2-4-|----------------|----------------|----------------|

G|----------------|----------------|----------------|
D|----------------|----------------|----------------|
A|----------------|0-0-0-0-0-0-0-0-|4--4-4~---------|
E|2-2-2-2-2-2-2-4-|----------------|----------------|

Theres no bass but if You want You can play ending (from 3:26) like this:

A|8~--9~--0~--4~--| ...or use Your own variations. Have fun!

/  slide up
\  slide down
h  hammer-on
p  pull-off
~  let ring

            
            
Suggest correction
Creating personal tab
Creating personal tab
You can edit any tab online and save it as your Personal.

You can edit, replace or remove any tab part or add personal notes – all changes will be seen only by you.

Personal tabs can be accessed anytime from any device, even offline.
Learn more »
comments
print report bad tab
2 comments total.
0 reply
zakarai 201 May 19, 2010 03:01 PM

Great tab!
5*! xD

0 reply
tom the ginger 31 May 20, 2010 09:40 AM

Kudos on getting it so quickly and so good =)

guest
You may want to rate the tab now too:
select rating
Wanna post a correction for this tab? Suggest correction