Oops, an error
Loading. Please wait.

Neutron Star Collision tab

version 5
version 5
by Muse
6,702 views 3 this week
no commentswrite comment
1 2 3 4 5
1 last vote to show rating
add to favorites
×
Save as Personal and add changes to this tab that will be seen only by you. Learn more ›
×
You can save this tab as Personal to edit and correct it or add notes. All changes will be seen only by you. Learn more »
launch autoscroll
font size
0
reset
how to read this tab
guitar tuner
edit
Autoscroll
slow
fast
+/-
esc
set tempo
stop
Author
Well Another Great Muse Song For The Twilight Movies..
I think This tab is Kind A Good To play This Song.
Enjoy and please comment.


Figure The Struming By your self :P


(Piano) Intro Part :

e|------------------------------------|
B|------------------------------------|
G|----6------------6--5---------------|      play this 2 Times.
D|----6--3-----4---6--6---------------|
A|----4--3-----4---x--x---------------|
E|-------1-----2---4--4---------------|

Per Chours:

e|-------------------------------------|
B|-------------------------------------|
G|-------------------6-------------6-5-|
D|----3---6--8---6---6-----3---4---6-6-|
A|----3---8--8---6---4-----3---4---x-x-|
E|----1---5--6---4---------1---2---4-4-|

Chours:


e|----2------3--4--------------------|
B|----2------3--4-------------10-----|
G|----3------5--6-----6----8--10-----|
D|----4--x3--6--7-x3--6-x3-8--10-x3--|
A|----4------6--7-----4----6---8-----|
E|----2------4--5--------------------|


End With
e|-----------------------|
B|-----------------------|
G|----6-6-6--------------|
D|----6-6-6--------------|Let It Ring
A|----4-4-4--------------|
E|-----------------------|


The guitar Part Coms in the second time of the piano part:

part 1 :
e|--------------------------|
B|--------------------------|
G|--------------------------|
D|--------------------------|
A|--------------4v---2------|
E|----2v--4-5v---------5v---|

part 2:

e|-------------------|
B|-------------------|
G|---------------6v--|
D|----4v---6-7v------|
A|-------------------|
E|-------------------|

then repeat The vers And Per Chours And Chours Are The same
just a little bit fatster =]

until the solo

solo
With Delay:
e|---------------------------------------------------|
B|14v-14v-14v-14v-13v-13v-9-9-9s11-9-------9---------|
G|-----------------------------------11-10---11-10v--|
D|---------------------------------------------------|
A|---------------------------------------------------|
E|---------------------------------------------------|

part 2:
e|----------11--13h14p13--11----------11-----13b---------|
B|----13-14-----------------14-13-14--------------9v-----|
G|-------------------------------------------------------|
D|-------------------------------------------------------|
A|-------------------------------------------------------|
E|-------------------------------------------------------|

Then We go To The Per chours And Then The Last Chours

End With
e|-----------------------|
B|-----------------------|
G|----6-6-6--------------|
D|----6-6-6--------------|Let It Ring
A|----4-4-4--------------|
E|-----------------------|

Enjoy it's not 100% correc..so if there is anymistake you can send me
Muse Rocks!@#

            
            
Suggest correction
Creating personal tab
Creating personal tab
You can edit any tab online and save it as your Personal.

You can edit, replace or remove any tab part or add personal notes – all changes will be seen only by you.

Personal tabs can be accessed anytime from any device, even offline.
Learn more »
Give kudos to tab author, rate the tab!
1 2 3 4 5
comments
print report bad tab
guest
You may want to rate the tab now too:
select rating
Wanna post a correction for this tab? Suggest correction