Oops, an error
Loading. Please wait.
We have an official New Born tab made by UG professional guitarists. Check out the tab »
×
by Muse
20,919 views 21 this week
3 commentsread comments
1 2 3 4 5
x 12
add to favorites
×
Save as Personal and add changes to this tab that will be seen only by you. Learn more ›
×
You can save this tab as Personal to edit and correct it or add notes. All changes will be seen only by you. Learn more »
launch autoscroll
font size
0
reset
guitar tuner
backing track
0:00
0:00
edit
Autoscroll
slow
fast
+/-
esc
set tempo
stop
Author
The other tab was quite close, but he did miss a few parts in the verse,so I thought I 
post the correct(as near as I can tell) version. Go easy on me, this is my first tab. The 
guy got the chorus and the riff right, but missed some notes in the verse.

Main Riff-
G--9------------------|
D---7-9---------------|
A-7-------------------|
D------ (Play this 10-| times)

G--5-----5-----4-----4-----8------8----|
D---3-5---3-5---2-4---2-4---8-9----8-9-|
A-3-----3-----2-----2-----6------6-----|
D--------------------------------------|

The Bass drops out at one point and the guitar starts playing an awesome riff, Halfway 
the riff play this

G--------------------------------|
D--------------------------------|
A-33333333111111112222222222222222
D---------------------------------

Then play riff with guitar-

G---------------------------------------------------------------------|
D---------------------------------------------------------------------|
A-------------------------------------------------------------2-2-2-2-|
D-2-2-2-2-5-2-5-6-7-7-7-7-10-7-10-11-12-0-0-12-0-0-3-4-5-5-5-5--------|

Then to Chorus

G---------------------------------------------------|
D---------------------------------------------------|
A----------0-0-0--3-5-5-5--------2--333-111-222-222-|
D-2-2-2--5----------------3-5-5-5-------------------|

            
            
Suggest correction
Creating personal tab
Creating personal tab
You can edit any tab online and save it as your Personal.

You can edit, replace or remove any tab part or add personal notes – all changes will be seen only by you.

Personal tabs can be accessed anytime from any device, even offline.
Learn more »
comments
print report bad tab
3 comments total.
0 reply
jonnybassman 10 Aug 04, 2007 02:44 PM

verse is wrong, goes lyk this

9 5 5 4 4 8 8
79 x 10 then 45 45 45 45 79 79
7 3 3 2 2 6 6

0 reply
jonnybassman 10 Aug 04, 2007 02:45 PM

sorry messed that up

+3 reply
jonnybassman 10 Aug 04, 2007 02:50 PM

i will do it properly this time

--9----------------------------------
---7-9---x-10------------------------
-7-----------------------------------
-------------------------------------

--5-----5-----4-----4-----8-----8----------
---4-5---4-5---4-5---4-5---7-9---7-9---x 1-
-3-----3-----2-----2-----6-----6-----------
-------------------------------------------

guest
You may want to rate the tab now too:
select rating
Wanna post a correction for this tab? Suggest correction