Oops, an error
Loading. Please wait.
We have an official Plug In Baby tab made by UG professional guitarists. Check out the tab »
×
by Muse
54,602 views 24 this week
7 commentsread comments
1 2 3 4 5
x 25
add to favorites
×
Save as Personal and add changes to this tab that will be seen only by you. Learn more ›
×
You can save this tab as Personal to edit and correct it or add notes. All changes will be seen only by you. Learn more »
launch autoscroll
font size
0
reset
how to read this tab
guitar tuner
backing track
0:00
0:00
edit
Autoscroll
slow
fast
+/-
esc
set tempo
stop
Author
-------------------------------------------------------------------------------
                             Plug In Baby - Muse
-------------------------------------------------------------------------------

By: Bradduk
X BU Z= bend up from x to z
e|----------------------------------2-3-2------------------------------------|
B|-------------------3--------3--5---------5--3------------------------------|
G|-3--4--6--3--4--6-----4--6---------------------6---------------------------|
D|---------------------------------------------------------------------------|
A|---------------------------------------------------------------------------|
E|---------------------------------------------------------------------------|

e|---------------------------------------------------------------------------|
B|-------------------5--------5--7--7-8-7--6--7--6--7--7-----------------7---|
G|-4--6--7—-4--6--7-----6--7------------------------------7-----------7------|
D|-----------------------------------------------------------7-----7---------|
A|--------------------------------------------------------------9------------|
E|---------------------------------------------------------------------------|

e|---------------------------------------------------------------------------|
B|-9-BU-10--9--7------7---------------------------------------------7-8-7----|
G|----------------10-----7--6--7--------6---------6--7-----6--7--9-----------|
D|--------------------------------8--9------8--9--------9--------------------|
A|---------------------------------------------------------------------------|
E|---------------------------------------------------------------------------|

e|---------------------------------------------------------------------------|
B|---------------------------------------------------------------------------|
G|-9--7--6--4----------------------------------------------------------------|
D|---------------------------------------------------------------------------|
A|---------------------------------------------------------------------------|
E|---------------------------------------------------------------------------|

===============================================================================

            
            
Suggest correction
Creating personal tab
Creating personal tab
You can edit any tab online and save it as your Personal.

You can edit, replace or remove any tab part or add personal notes – all changes will be seen only by you.

Personal tabs can be accessed anytime from any device, even offline.
Learn more »
comments
print report bad tab
7 comments total. Showing first comments.
0 reply
andrewbiles 4,785 Dec 16, 2001 07:00 PM

that's a good tab, sounds great, but a uses loads of the fingerboard, I recomend using from frets 6 - 9 to play the intro, much easier.

0 reply
verymadmatt316 15 Dec 26, 2001 07:00 PM

Spot on Andrew! U don't need 2 play it on the 1st fret, or wotever u've got. Just start on the 6th with ur 4th finger & u'll find that easier!

0 reply
Bradduk 15 Jan 03, 2002 07:00 PM

hey man gimme a break this is my 1st tab!

guest
You may want to rate the tab now too:
select rating
Wanna post a correction for this tab? Suggest correction