Oops, an error
Loading. Please wait.
We have an official Plug In Baby tab made by UG professional guitarists. Check out the tab »
×
by Muse
184,660 views 84 this week
34 commentsread comments
1 2 3 4 5
x 111
add to favorites
×
Save as Personal and add changes to this tab that will be seen only by you. Learn more ›
×
You can save this tab as Personal to edit and correct it or add notes. All changes will be seen only by you. Learn more »
launch autoscroll
font size
0
reset
how to read this tab
guitar tuner
backing track
0:00
0:00
edit
Autoscroll
slow
fast
+/-
esc
set tempo
stop
e|-------------------0-2-3-2-0-----------------0----0-2-2-3-|
B|--0-2---0-2-3-0-2-3-----------3-2-0-2-3-0-2-3--2-3--------|
G|3-----3---------------------------------------------------|
D|----------------------------------------------------------|
A|----------------------------------------------------------|
E|----------------------------------------------------------|

e|-2-1-2-1-2-----------2-4-5-4-2-1-2-------------------------|
B|-----------3-------3---------------3-2-3---0-2---0-2-3-0-2-|
G|-------------2---2-----------------------3-----3-----------|
D|---------------4-------------------------------------------|
A|-----------------------------------------------------------|
E|-----------------------------------------------------------|

e|---0-2-3-2-0-------|
B|-3-----------3-2-0-|
G|-------------------|
D|-------------------|
A|-------------------|
E|-------------------|

            
            
Suggest correction
Creating personal tab
Creating personal tab
You can edit any tab online and save it as your Personal.

You can edit, replace or remove any tab part or add personal notes – all changes will be seen only by you.

Personal tabs can be accessed anytime from any device, even offline.
Learn more »
comments
print report bad tab
34 comments total. Showing first comments. show 1 bad comment
+4 reply
mikeyg 35 Jan 10, 2002 07:00 PM

I have seen lots of uver versions of dis but dis is da easiest one 2 play 4 me

+2 reply
karyn 10 Feb 08, 2002 07:00 PM

i saw som1 playin it like this in a guitar shop and it sounded cool so i had 2 find it and its the best way. well done

guest
You may want to rate the tab now too:
select rating
Wanna post a correction for this tab? Suggest correction