Oops, an error
Loading. Please wait.
We have an official Revolt tab made by UG professional guitarists. Check out the tab »
×
by Muse
5,580 views 3 this week
6 commentsread comments
1 2 3 4 5
x 15
add to favorites
×
Save as Personal and add changes to this tab that will be seen only by you. Learn more ›
×
You can save this tab as Personal to edit and correct it or add notes. All changes will be seen only by you. Learn more »
launch autoscroll
font size
0
reset
guitar tuner
backing track
0:00
0:00
edit
Autoscroll
slow
fast
+/-
esc
set tempo
stop
Author
Difficulty
-------------------------------------------------------------------------------
                            Revolt - Muse
-------------------------------------------------------------------------------

Tabbed by: Muser00
Tuning: Standard

Intro 0:14 ( With Distorsion )

G|------12~-|
D|-10h12----|
A|----------|
E|----------|

Verse 0:17 ( With Distorsion )
 
G|----------------------------------------------------------|x4
D|--------------------------------5-------------------------|
A|-3--5------------------------------5--7~-------------3~~~-|
E|-------3~-------------------------------------------------|

Pre-Chorus ( With Distorsion )

G|--------------------------------------------------5-9-9-9-9--9-9-9-9-|
D|---------------------------------------------5--5--------------------|
A|-3--5--7~----------5~-------------3~----3--7--7----------------------|
E|-------------------------------------3-------------------------------|

Chorus ( With Distorsion )

G|-----------------------------------------------------------------|
D|-5-5-5-5-5-5-5-5-5-5-5-5-4-4-4-4-2-2-2-2-2-2-2-2-----------------|
A|-------------------------------------------------3-3-3-3-3-3-3-3-|
E|-----------------------------------------------------------------|

G|-------------------------------------------------5-5-5-5-5-5-5-5-|
D|-5-5-5-5-5-5-5-5-5-5-5-5-4-4-4-4-2-2-2-2-2-2-2-2-----------------|
A|-----------------------------------------------------------------|
E|-----------------------------------------------------------------|

G|-----------------------------------------------------------------|
D|-5-5-5-5-5-5-5-5-------------------------------------------------|
A|-----------------5-5-5-5-5-5-5-5-7-7-7-7-7-7-7-7-3-3-3-3-3-3-3-3-|
E|-----------------------------------------------------------------|

G|---------------------------------------------------------|
D|-5-5-5-5-5-5-5-5-7-7-7-7-7-7-7-7-------------------------|
A|---------------------------------7-7-7-7-7-7-7-7-3-3-3-3-|
E|---------------------------------------------------------|

Verse ( With Distorsion )
 
G|----------------------------------------------------------|x3
D|--------------------------------5-------------------------|
A|-3--5------------------------------5--7~-------------3~~~-|
E|-------3~-------------------------------------------------|

Pre-Chorus ( With Distorsion )

G|--------------------------------------------------5-9-9-9-9--9-9-9-9-|
D|---------------------------------------------5--5--------------------|
A|-3--5--7~----------5~-------------3~----3--7--7----------------------|
E|-------------------------------------3-------------------------------|

Chorus ( With Distorsion )

G|-----------------------------------------------------------------|
D|-5-5-5-5-5-5-5-5-5-5-5-5-4-4-4-4-2-2-2-2-2-2-2-2-----------------|
A|-------------------------------------------------3-3-3-3-3-3-3-3-|
E|-----------------------------------------------------------------|

G|-------------------------------------------------5-5-5-5-5-5-5-5-|
D|-5-5-5-5-5-5-5-5-5-5-5-5-4-4-4-4-2-2-2-2-2-2-2-2-----------------|
A|-----------------------------------------------------------------|
E|-----------------------------------------------------------------|

G|-----------------------------------------------------------------|
D|-5-5-5-5-5-5-5-5-------------------------------------------------|
A|-----------------5-5-5-5-5-5-5-5-7-7-7-7-7-7-7-7-3-3-3-3-3-3-3-3-|
E|-----------------------------------------------------------------|

G|---------------------------------------------------------|
D|-5-5-5-5-5-5-5-5-7-7-7-7-7-7-7-7-------------------------|
A|---------------------------------7-7-7-7-7-7-7-7-3-3-3-3-|
E|---------------------------------------------------------|

Solo ( With Distorsion )

G|----------------------------------------------------------|x2
D|--------------------------------5-------------------------|
A|-3--5------------------------------5--7~-------------3~~~-|
E|-------3~-------------------------------------------------|

Bridge ( With Distorsion )

G|-----------------------------|x2
D|-----------------------------|
A|-3--5--7~---------------3~~~-|
E|-----------------------------|

G|--------------------------------------5-7-7-7-7--7-7-7-7-|
D|--------------------------------5---5--------------------|
A|-3--2----------0--2--3-----3--7---7-~--------------------|
E|-------5~---------------3--------------------------------|

Chorus ( With Distorsion )

G|-----------------------------------------------------------------|
D|-5-5-5-5-5-5-5-5-5-5-5-5-4-4-4-4-2-2-2-2-2-2-2-2-----------------|
A|-------------------------------------------------3-3-3-3-3-3-3-3-|
E|-----------------------------------------------------------------|

G|-------------------------------------------------5-5-5-5-5-5-5-5-|
D|-5-5-5-5-5-5-5-5-5-5-5-5-4-4-4-4-2-2-2-2-2-2-2-2-----------------|
A|-----------------------------------------------------------------|
E|-----------------------------------------------------------------|

G|-----------------------------------------------------------------|
D|-5-5-5-5-5-5-5-5-------------------------------------------------|
A|-----------------5-5-5-5-5-5-5-5-7-7-7-7-7-7-7-7-3-3-3-3-3-3-3-3-|
E|-----------------------------------------------------------------|

G|---------------------------------------------------------|
D|-5-5-5-5-5-5-5-5-7-7-7-7-7-7-7-7-------------------------|
A|---------------------------------7-7-7-7-7-7-7-7-3-3-3-3-|
E|---------------------------------------------------------|

Outro ( With Distorsion )

G|------------|
D|------------|
A|-3--5-------|
E|-------3~~~-|

This is it! Have fun!

| /  slide up
| \  slide down
| h  hammer-on
| p  pull-off
| ~  let ring
| +  harmonic
| x  Mute note
===============================================================================

            
            
Suggest correction
Creating personal tab
Creating personal tab
You can edit any tab online and save it as your Personal.

You can edit, replace or remove any tab part or add personal notes – all changes will be seen only by you.

Personal tabs can be accessed anytime from any device, even offline.
Learn more »
comments
print report bad tab
6 comments total. Showing first comments.
0 reply
elefunk 10 Jun 08, 2015 10:51 AM

Lack of accuracy. Clearly wrong. dude you have too many notes, some of them are wrong, some missed and some parts does not sound good at all

0 reply
Muser00 1,083 Jun 08, 2015 10:57 AM

I know...i do this tab very quickly and i dont know if every note are right...sorry

+1 reply
wiebegaag 10 Jun 10, 2015 06:13 AM

its sounds perfect to me 5* for you

guest
You may want to rate the tab now too:
select rating
Wanna post a correction for this tab? Suggest correction