Oops, an error
Loading. Please wait.
We have an official Supermassive Black Hole tab made by UG professional guitarists. Check out the tab »
×
by Muse
277,134 views 9 this week
24 commentsread comments
1 2 3 4 5
x 42
add to favorites
×
Save as Personal and add changes to this tab that will be seen only by you. Learn more ›
×
You can save this tab as Personal to edit and correct it or add notes. All changes will be seen only by you. Learn more »
launch autoscroll
font size
0
reset
how to read this tab
guitar tuner
backing track
0:00
0:00
edit
Autoscroll
slow
fast
+/-
esc
set tempo
stop
Author
Unregistered
Song: Supermassive Black Hole
Band: Muse
Album: Black Holes and Revelations
Date:9 May 2005

This is the new single off Muse's currently unrealeased album.
Standard Tuning
Timing is not accurate, you must listen to song for correct timing.


[Intro]

e|---------------------| |---|    |---------------------| |-------------|
B|---------------------| |---|    |---------------------| |-3-2-0h2p0---|
G|---------------------| |---|    |---------------------| |-----------2-|
D|---5b-----------5b---| |---|    |---5b-----------5b---| |-------------|
A|-2---2---2-2--2----2-| |-2-|    |-2---2---2-2--2----2-| |-------------|
E|-0---0---0-0--0----0-| |-0-| X3 |-0---0---0-0--0----0-| |-------------|


[Verse 1]

 Repeat whole thing twice. Second time is less distorted. 
e|------------------------------------------------------------------------|
B|------------------------------------------------------------------------|
G|------------------------------------------------------------------------|
D|------5-----------------5-----------------5-----------------5-----------|
A|------------5-5-5-------------7-7-5-------------5-5-5-------------7-7-8-|
E|-0-0--3-0-0-3-3-3--0-0--3-0-0-5-5-3--0-0--3-0-0-3-3-3--0-0--3-0-0-5-5-6-|x3

e|-----------------------------| |-------------|
B|-----------------------------| |-3-2-0h2p0---|
G|-----------------------------| |-----------2-|
D|------5-----------------5----| |-------------|
A|------------5-5-5------------| |-------------|
E|-0-0--3-0-0-3-3-3--0-0--3-0--| |-------------|


[Chorus]

e|-----------------------------------------------------------------|
B|-----------------------------------------------------------------|
G|-----------------------------------------------------------------|
D|-----------------------------------------------------------------|
A|-7-7-7-7-7-7-7-6-5-5-5-5-5-5-7-8-9-9-9-9-9-9-5-4-2-2-2-2-4-4-5-5-|
E|-5-5-5-5-5-5-5-4-3-3-3-3-3-3-5-6-7-7-7-7-7-7-3-2-0-0-0-0-2-2-3-3-| x3

e|-----------------------------------------------------| |-------------|
B|-----------------------------------------------------| |-------------|
G|-----------------------------------------------------| |-------------|
D|-----------------------------------------------------| |---------5---|
A|-7-7-7-7-7-7-7-6-5-5-5-5-5-5-7-8-9-9-9-9-9-9-5-4-2-2-| |-------------|
E|-5-5-5-5-5-5-5-4-3-3-3-3-3-3-5-6-7-7-7-7-7-7-3-2-0-0-| |-7-6-5-3---2-|


[Verse 2]

 Heavy then normal verse.
e|-----|
B|-----|
G|-----|
D|-----|
A|-2---|
E|-0---|x2 (listen to song for timing)

e|----------------------------------------------------------------|
B|----------------------------------------------------------------|
G|----------------------------------------------------------------|
D|------5-----------------5-----------------5-----------------5---|
A|------------5-5-5-------------7-7-5-------------5-5-5-----------|
E|-0-0--3-0-0-3-3-3--0-0--3-0-0-5-5-3--0-0--3-0-0-3-3-3--0-0--3-0-|


[Chorus]

e|-----------------------------------------------------------------|
B|-----------------------------------------------------------------|
G|-----------------------------------------------------------------|
D|-----------------------------------------------------------------|
A|-7-7-7-7-7-7-7-6-5-5-5-5-5-5-7-8-9-9-9-9-9-9-5-4-2-2-2-2-4-4-5-5-|
E|-5-5-5-5-5-5-5-4-3-3-3-3-3-3-5-6-7-7-7-7-7-7-3-2-0-0-0-0-2-2-3-3-| x3

e|-----------------------------------------------------| |-------------|
B|-----------------------------------------------------| |-------------|
G|-----------------------------------------------------| |-------------|
D|-----------------------------------------------------| |---------5---|
A|-7-7-7-7-7-7-7-6-5-5-5-5-5-5-7-8-9-9-9-9-9-9-5-4-2-2-| |-------------|
E|-5-5-5-5-5-5-5-4-3-3-3-3-3-3-5-6-7-7-7-7-7-7-3-2-0-0-| |-7-6-5-3---2-|


[Bridge]

e|---------------------| |---|    |---------------------| 
B|---------------------| |---|    |---------------------| 
G|---------------------| |---|    |---------------------| 
D|---5b-----------5b---| |---|    |---5b-----------5b---| 
A|-2---2---2-2--2----2-| |-2-|    |-2---2---2-2--2----2-| 
E|-0---0---0-0--0----0-| |-0-| X3 |-0---0---0-0--0----0-| 


[Solo]

 Whammy Bar Bends and cool effects. Can't figure out, my recording is crap. Here's a rough attempt:
e|--------------------------------------------------| |----------------------|
B|--------------------------------------------------| |----------------15fb--|
G|-------------------14b~14h16p14h16p14h16p14h16p14-| |-16b~b~--17fb---------|
D|-///9~~--///14~~\12-------------------------------| |----------------------|
A|--------------------------------------------------| |----------------------|
E|--------------------------------------------------| |----------------------|

Again, listen to song for timing. A better solo would be appreciated.
Verse is played under solo.


[Chorus]

e|-----------------------------------------------------------------|
B|-----------------------------------------------------------------|
G|-----------------------------------------------------------------|
D|-----------------------------------------------------------------|
A|-7-7-7-7-7-7-7-6-5-5-5-5-5-5-7-8-9-9-9-9-9-9-5-4-2-2-2-2-4-4-5-5-|
E|-5-5-5-5-5-5-5-4-3-3-3-3-3-3-5-6-7-7-7-7-7-7-3-2-0-0-0-0-2-2-3-3-| x3

e|-----------------------------------------------------| |-------------|
B|-----------------------------------------------------| |-------------|
G|-----------------------------------------------------| |-------------|
D|-----------------------------------------------------| |---------5---|
A|-7-7-7-7-7-7-7-6-5-5-5-5-5-5-7-8-9-9-9-9-9-9-5-4-2-2-| |-------------|
E|-5-5-5-5-5-5-5-4-3-3-3-3-3-3-5-6-7-7-7-7-7-7-3-2-0-0-| |-7-6-5-3---2-|


[Outro]

e|---------------------| |---|    |---------------------| 
B|---------------------| |---|    |---------------------| 
G|---------------------| |---|    |---------------------| 
D|---5b-----------5b---| |---|    |---5b-----------5b---| 
A|-2---2---2-2--2----2-| |-2-|    |-2---2---2-2--2----2-| 
E|-0---0---0-0--0----0-| |-0-| X3 |-0---0---0-0--0----0-|



************************************

| h  Hammer-on
| p  Pull-off
| b  Bend
| /  Slide up
| ~  Vibrato

************************************

            
            
Suggest correction
Creating personal tab
Creating personal tab
You can edit any tab online and save it as your Personal.

You can edit, replace or remove any tab part or add personal notes – all changes will be seen only by you.

Personal tabs can be accessed anytime from any device, even offline.
Learn more »
comments
print report bad tab
24 comments total. Showing first comments.
-2 reply
yawn 192 May 09, 2006 11:31 PM

Looks good, though admitedly I haven't tried it on guitar yet. Guess I'll try it tomorrow.

-1 reply
Muppet 110 May 10, 2006 07:05 AM

You can't judge a song like that! Come on...

+3 reply
slybeans 10 Jun 06, 2006 06:29 AM

Intro:
|---------------------| |---| |---------------------| |-------------|
|---------------------| |---| |---------------------| |-3-2-0h2p0---|
|---------------------| |---| |---------------------| |-----------2-|
|---5b-----------5b---| |---| |---5b-----------5b---| |-------------|
|-2---2---2-2--2----2-| |-2-| |-2---2---2-2--2----2-| |-------------|
|-0---0---0-0--0----0-| |-0-| X3 |-0---0---0-0--0----0-| |-------------|

The end bit of that doesn't sound right....=/

guest
Wanna post a correction for this tab? Suggest correction