Oops, an error
Loading. Please wait.
We have an official Supermassive Black Hole tab made by UG professional guitarists. Check out the tab »
×
by Muse
695,349 views 633 this week
55 commentsread comments
1 2 3 4 5
x 215
add to favorites
×
Save as Personal and add changes to this tab that will be seen only by you. Learn more ›
×
You can save this tab as Personal to edit and correct it or add notes. All changes will be seen only by you. Learn more »
launch autoscroll
font size
0
reset
how to read this tab
guitar tuner
backing track
0:00
0:00
edit
Autoscroll
slow
fast
+/-
esc
set tempo
stop
Artist: Muse
Song: Supermassive Black Hole
Album: Black Holes & Revelations
Tuning: Standard
Tabbed By James Morris


[Intro]

E|----------------------------|
B|----------------------------|
G|----------------------------|
D|----------------------------| x3
A|----10b----------10b--------|
E|-0------0--0-0-0-----0--0-0-|

E|--------------------------------------|
B|--------------------------------------|
G|------------------------2(3)2-0h2p0---|
D|------------------------------------2-|
A|----10b----------10b------------------|
E|-0------0--0-0-0-----0----------------|


[Main Riff/Verse 1]

E|---------------------------------------------------------------------|
B|---------------------------------------------------------------------|
G|---------------------------------------------------------------------|
D|---------------------------------------------------------------------|
A|----10b--------------10b-----7-7-5----10b--------------10b-----7-7-8-|
E|-0------0-0-3-3-3-0------0-0-5-5-3-0------0-0-3-3-3-0------0-0-5-5-6-|

E|-------------------------------------------------------------|
B|-------------------------------------------------------------|
G|-------------------------------------------------------------|
D|-------------------------------------------------------------|
A|----10b--------------10b-----7-7-5----10b--------------10b---|
E|-0------0-0-3-3-3-0------0-0-5-5-3-0------0-0-3-3-3-0------0-|

E|---------------|
B|---------------|
G|-2(4)2-0h2p0---|
D|-------------2-|
A|---------------|
E|---------------|


[Pre-Chorus]

E|-----------------------------------------------------------------|
B|-----------------------------------------------------------------|
G|-----------------------------------------------------------------|
D|-----7-----7-7-------5---------------9-----8-7-5-----------------|
A|-----------------------------------------------------------------|
E|-5-5---5-5-----4-3-3---3-3-5-5-6-7-7---7-7-------0-0-0-2-2-3-3-4-|

E|-----------------------------------------------------------------|
B|-----------------------------------------------------------------|
G|-----------------------------------------------------------------|
D|-----7-----7-7-------5---------------9-----8-7-5-----------------|
A|---------------------------------------------------2---4---5---6-|
E|-5-5---5-5-----4-3-3---3-3-5-5-6-7-7---7-7---------0---2---3---4-|


[Chorus]

E|-----------------------------------------------------------------|
B|-----------------------------------------------------------------|
G|-----------------------------------------------------------------|
D|-----7-----7-7-------5---------------9-----8-7-5-----------------|
A|-----------------------------------------------------------------|
E|-5-5---5-5-----4-3-3---3-3-5-5-6-7-7---7-7-------0-0-0-2-2-3-3-4-|

E|-----------------------------------------------------------------|
B|-----------------------------------------------------------------|
G|-----------------------------------------------------------------|
D|-----7-----7-7-6-----5---------------9-----8-7-5-----------------|
A|-----------------------------------------------------------------|
E|-5-5---5-5-------3-3---3-3-5-5-6-7-7---7-7---------7-7-6-5-5-3-2-|


[Verse 2]

E|---------------------------------------|
B|---------------------------------------|
G|---------------------------------------|
D|---------------------------------------|
A|---------------------------------------|
E|-0~------------------0~----------------|

E|--------------------------------------------------------------------|
B|--------------------------------------------------------------------|
G|--------------------------------------------------------------------|
D|--------------------------------------------------------------------|
A|----10b--------------10b-----7-7-5----10b--------------10b----------|
E|-0------0-0-3-3-3-0------0-0-5-5-3-0------0-0-3-3-3-0------0~-------|


[Pre-Chorus]

E|-----------------------------------------------------------------|
B|-----------------------------------------------------------------|
G|-----------------------------------------------------------------|
D|-----7-----7-7-------5---------------9-----8-7-5-----------------|
A|-----------------------------------------------------------------|
E|-5-5---5-5-----4-3-3---3-3-5-5-6-7-7---7-7-------0-0-0-2-2-3-3-4-|

E|-----------------------------------------------------------------|
B|-----------------------------------------------------------------|
G|-----------------------------------------------------------------|
D|-----7-----7-7-------5---------------9-----8-7-5-----------------|
A|---------------------------------------------------2---4---5---6-|
E|-5-5---5-5-----4-3-3---3-3-5-5-6-7-7---7-7---------0---2---3---4-|


[Chorus]

E|-----------------------------------------------------------------|
B|-----------------------------------------------------------------|
G|-----------------------------------------------------------------|
D|-----7-----7-7-------5---------------9-----8-7-5-----------------|
A|-----------------------------------------------------------------|
E|-5-5---5-5-----4-3-3---3-3-5-5-6-7-7---7-7-------0-0-0-2-2-3-3-4-|

E|-----------------------------------------------------------------|
B|-----------------------------------------------------------------|
G|-----------------------------------------------------------------|
D|-----7-----7-7-6-----5---------------9-----8-7-5-----------------|
A|-----------------------------------------------------------------|
E|-5-5---5-5-------3-3---3-3-5-5-6-7-7---7-7---------7-7-6-5-5-3-2-|


[Interlude]

   ‘Supermassive Black Hole’
E|----------------------------|
B|----------------------------|
G|----------------------------|
D|----------------------------| x3
A|----10b----------10b--------|
E|-0------0--0-0-0-----0--0-0-|

E|----------------------------|
B|----------------------------|
G|----------------------------|
D|----------------------------| 
A|----10b----------10b--------|
E|-0------0--0-0-0-----0~-----|


[Solo]

 (Played Over Main Riff)

E|-------------------------------------------------------|
B|-------------10bu-----10h12p10h12p10h12p10h12p10bu~----|
G|-/4---/14\12-------x-----------------------------------|
D|-------------------x-----------------------------------|
A|-------------------------------------------------------|
E|-------------------------------------------------------|

E|--------------------------|
B|-12bu-/10---15-------(18)-|
G|------------17bu(19)------|
D|--------------------------|
A|--------------------------|
E|--------------------------|


[Pre-Chorus]

E|-----------------------------------------------------------------|
B|-----------------------------------------------------------------|
G|-----------------------------------------------------------------|
D|-----7-----7-7-------5---------------9-----8-7-5-----------------|
A|-----------------------------------------------------------------|
E|-5-5---5-5-----4-3-3---3-3-5-5-6-7-7---7-7-------0-0-0-2-2-3-3-4-|

E|-----------------------------------------------------------------|
B|-----------------------------------------------------------------|
G|-----------------------------------------------------------------|
D|-----7-----7-7-------5---------------9-----8-7-5-----------------|
A|---------------------------------------------------2---4---5---6-|
E|-5-5---5-5-----4-3-3---3-3-5-5-6-7-7---7-7---------0---2---3---4-|


[Chorus]

E|-----------------------------------------------------------------|
B|-----------------------------------------------------------------|
G|-----------------------------------------------------------------|
D|-----7-----7-7-------5---------------9-----8-7-5-----------------|
A|-----------------------------------------------------------------|
E|-5-5---5-5-----4-3-3---3-3-5-5-6-7-7---7-7-------0-0-0-2-2-3-3-4-|

E|-----------------------------------------------------------------|
B|-----------------------------------------------------------------|
G|-----------------------------------------------------------------|
D|-----7-----7-7-6-----5---------------9-----8-7-5-----------------|
A|-----------------------------------------------------------------|
E|-5-5---5-5-------3-3---3-3-5-5-6-7-7---7-7---------7-7-6-5-5-3-2-|


[Outro]

(Interlude)

   ‘Supermassive Black Hole’
E|----------------------------|
B|----------------------------|
G|----------------------------|
D|----------------------------| x3
A|----10b----------10b--------|
E|-0------0--0-0-0-----0--0-0-|

E|----------------------------|
B|----------------------------|
G|----------------------------|
D|----------------------------| (* represents harmonic. Best played on
A|----10b----------10b----x*--|    the third frets)
E|-0------0--0-0-0-----0--x*--|



********************************
|x    Dead note
|~    Vibrato
|/    Slide up
|\    Slide down
|h    Hammer-on
|p    Pull-off
|b    Bend
|*    Harmonics
********************************

End. Hope you enjoy. Please rate and comment. Cheers. 

            
            
Suggest correction
Creating personal tab
Creating personal tab
You can edit any tab online and save it as your Personal.

You can edit, replace or remove any tab part or add personal notes – all changes will be seen only by you.

Personal tabs can be accessed anytime from any device, even offline.
Learn more »
comments
print report bad tab
55 comments total. Showing first comments.
+10 reply
DaveTheBinman 622 Jul 14, 2006 12:55 AM

E|---------------|
B|---------------|
G|-2(3)2-0h2p0---|
D|-------------2-|
A|---------------|
E|---------------|

That might sound better

0 reply
smith92 51 Jul 22, 2006 05:29 AM

Pretty much correct. Nice work son.

+19 reply
RadioactiveGuy 10 Sep 13, 2006 07:45 PM

in the intro and main part i find it eaiser to hit the 5th fret on the D string rather than going all the way up to the 10th fret on the A string

guest
You may want to rate the tab now too:
select rating
Wanna post a correction for this tab? Suggest correction