Oops, an error
Loading. Please wait.
We have an official Supermassive Black Hole tab made by UG professional guitarists. Check out the tab »
×
by Muse
62,813 views 33 this week
14 commentsread comments
1 2 3 4 5
x 30
add to favorites
×
Save as Personal and add changes to this tab that will be seen only by you. Learn more ›
×
You can save this tab as Personal to edit and correct it or add notes. All changes will be seen only by you. Learn more »
launch autoscroll
font size
0
reset
how to read this tab
guitar tuner
backing track
0:00
0:00
edit
Autoscroll
slow
fast
+/-
esc
set tempo
stop
Author
Tuning: Standard

e|---------------------------------------------------------------------------|
B|---------------------------------------------------------------------------|
G|-9v---p7h9p7h9p7h9p7h9---p7h9p7h9b9.5r9p7p4---p2h4p2---p0h2p0h2-p0h2p0-----|
D|-----------------------------------------------------------------------h2--|
A|---------------------------------------------------------------------------|
E|---------------------------------------------------------------------------|

e|---------------------------------------------------------------------------|
B|---------------------------------------------------------------------------|
G|---------------------------------------------------------------------------|
D|---------------------------------------------------------------------------|
A|-x----x-x-x----x-x-x----x-x-x----------------------------------------------|
E|-x----x-x-x----x-x-x----x-x-x-/////////////--------------------------------|

[Intro riff]
e|---------------------------------------------------------------------------|
B|---------------------------------------------------------------------------|
G|---------------------------------------------------------------------------|
D|-------------------------------------------------------------10-10-9-------|
A|-----10b------------10-----------------10b------------10-------------------|
E|-0--x-----0---0-0------0---x-0-0---0--x-----0---0-0------0-----------------|

e|---------------------------------------------------------------------------|
B|---------------------------------------------------------------------------|
G|-----------------------------------------------------------2b3r2-0h2p0-----|
D|---------------------------10-10-9-------------------------------------2---|
A|-----10b------------10-----------------10b------------10-------------------|
E|-0--x-----0---0-0------0-----------0--x-----0---0-0------0-----------------|

[Main Riff]
e|---------------------------------------------------------------------------|
B|---------------------------------------------------------------------------|
G|---------------------------------------------------------------------------|
D|---------------------------------------------------------------------------|
A|-----10---------------10-----7-7-5-----10---------------10-----7-7-8-------|
E|-0-0----0-0-3-3-3-0-0----0-0-5-5-3-0-0----0-0-3-3-3-0-0----0-0-5-5-6-------|

e|---------------------------------------------------------------------------|
B|---------------------------------------------------------------------------|
G|-------------------------------------------------------------2b3r2-0h2p0---|
D|-------------------------------------------------------------------------2-|
A|-----10---------------10-----7-7-5-----10---------------10-----------------|
E|-0-0----0-0-3-3-3-0-0----0-0-5-5-3-0-0----0-0-3-3-3-0-0----0---------------|

[Verse 1]
"Oohh baby don't you know I suffer..." - Palm mute low E string notes.
e|---------------------------------------------------------------------------|
B|---------------------------------------------------------------------------|
G|---------------------------------------------------------------------------|
D|---------------------------------------------------------------------------|
A|-----10---------------10-----7-7-5-----10---------------10-----7-7-8-------|
E|-0-0----0-0-3-3-3-0-0----0-0-5-5-3-0-0----0-0-3-3-3-0-0----0-0-5-5-6-------|

e|---------------------------------------------------------------------------|
B|---------------------------------------------------------------------------|
G|---------------------------------------------------------------------------|
D|---------------------------------------------------------------------------|
A|-----10---------------10-----7-7-5-----10---------------10-12b-------------|
E|-0-0----0-0-3-3-3-0-0----0-0-5-5-3-0-0----0-0-3-3-3-0-0--------------------|

[Chorus]
e|---------------------------------------------------------------------------|
B|---------------------------------------------------------------------------|
G|---------------------------------------------------------------------------|
D|-----7------7-7-6-----5---------------9-----8-7----------------------------|
A|------------------------------------------------10-7-----------------------|
E|-5-5---5-5--------3-3---3-5-5-6-6-7-7---7-7----------0-0-2-2-3-3-4---------|

e|---------------------------------------------------------------------------|
B|---------------------------------------------------------------------------|
G|---------------------------------------------------------------------------|
D|-----7------7-7-6-----5---------------9-----8-7----------------------------|
A|------------------------------------------------10-7-----------------------|
E|-5-5---5-5--------3-3---3-5-5-6-6-7-7---7-7----------0---2---3---4---------|

e|---------------------------------------------------------------------------|
B|---------------------------------------------------------------------------|
G|---------------------------------------------------------------------------|
D|-----7------7-7-6-----5---------------9-----8-7----------------------------|
A|------------------------------------------------10-7-----------------------|
E|-5-5---5-5--------3-3---3-5-5-6-6-7-7---7-7----------0-0-2-2-3-3-4---------|

e|---------------------------------------------------------------------------|
B|-----------------------------------------------------7-7-7-7-7-7-7---------|
G|-----------------------------------------------------9b9b9b9b9b9b9b--------|
D|-----7------7-7-6-----5---------------9-----8-7----------------------------|
A|------------------------------------------------10-x-----------------------|
E|-5-5---5-5--------3-3---3-5-5-6-6-7-7---7-7--------------------------------|

[Verse 2] 
"I thought I was a fool for no one..."
e|---------------------------------------------------------------------------|
B|---------------------------------------------------------------------------|
G|---------------------------------------------------------------------------|
D|---------------------------------------------------------------------------|
A|-----10bv~~~-------------------------12b~~-12b-12b-12b---------------------|
E|--0-------------------------------0---------------------////////-----------|

e|---------------------------------------------------------------------------|
B|---------------------------------------------------------------------------|
G|---------------------------------------------------------------------------|
D|---------------------------------------------------------------------------|
A|-----10---------------10-----7-7-5-----10---------------10-12b-------------|
E|-0-0----0-0-3-3-3-0-0----0-0-5-5-3-0-0----0-0-3-3-3-0-0--------------------|

[Chorus]
e|---------------------------------------------------------------------------|
B|---------------------------------------------------------------------------|
G|---------------------------------------------------------------------------|
D|-----7------7-7-6-----5---------------9-----8-7----------------------------|
A|------------------------------------------------10-7-----------------------|
E|-5-5---5-5--------3-3---3-5-5-6-6-7-7---7-7----------0-0-2-2-3-3-4---------|

e|---------------------------------------------------------------------------|
B|---------------------------------------------------------------------------|
G|---------------------------------------------------------------------------|
D|-----7------7-7-6-----5---------------9-----8-7----------------------------|
A|------------------------------------------------10-7-----------------------|
E|-5-5---5-5--------3-3---3-5-5-6-6-7-7---7-7----------0---2---3---4---------|

e|---------------------------------------------------------------------------|
B|---------------------------------------------------------------------------|
G|---------------------------------------------------------------------------|
D|-----7------7-7-6-----5---------------9-----8-7----------------------------|
A|------------------------------------------------10-7-----------------------|
E|-5-5---5-5--------3-3---3-5-5-6-6-7-7---7-7----------0-0-2-2-3-3-4---------|

e|---------------------------------------------------------------------------|
B|-----------------------------------------------------7-7-7-7-7-7-7---------|
G|-----------------------------------------------------9b9b9b9b9b9b9b--------|
D|-----7------7-7-6-----5---------------9-----8-7----------------------------|
A|------------------------------------------------10-x-----------------------|
E|-5-5---5-5--------3-3---3-5-5-6-6-7-7---7-7--------------------------------|

[Riff] 
"Supermassive Black Hole..." - Matt will either play the intro riff here, or something
else bluesy; here's the HAARP riff:
e|---------------------------------------------------------------------------|
B|---------------------------------------------------------------------------|
G|---------------------------------------------------------------------------|
D|---------------------------------------------------------------------------|
A|-7---5-------------------------5-6-7---5------------------------5-6--------|
E|--------7-6-5-3-0--x-0-3-5-6-7-----------7-6-5-3-0--x-0-3-5-6-7------------|

e|---------------------------------------------------------------------------|
B|---------------------------------------------------------------------------|
G|--------------------------------------------------------------(Kaoss Pad)--|
D|-5b--------------------------------------------------x-x-x--x--------------|
A|-----7-------------------------5-6-7---5-------------x-x-x--x--------------|
E|--------7-6-5-3-0--x-0-3-5-6-7-----------7-6-5-3-0---x-x-x--x--------------|

[Solo] 
The first part (and sometimes all) of the live solo is done on a Kaoss Pad (with a high
ascending E minor pentatonic scale over the top if the Kaoss Pad is used for the full section);
here's the second part from HAARP:

e|---------------------------------------------------------------------------|
B|-7-7-7-7-7----7-7-7-7------------------------------------------------------|
G|-9b9b9b9b9b---9b9b9b9b-9-7-------7h9p7---7---------------------------------|
D|---------------------------9-9---------9---9-7-9b--9-7-5v------------------|
A|---------------------------------------------------------------------------|
E|---------------------------------------------------------------------------|

[Final chorus] 
Powerchords for first half as Chris sings.
e|---------------------------------------------------------------------------|
B|---------------------------------------------------------------------------|
G|---------------------------------------------------------------------------|
D|--7-7-7-7-7-7-7-6-5-5-5-5-7-7-8-8-9-9-9-9-9-8-7----------------------------|
A|--7-7-7-7-7-7-7-6-5-5-5-5-7-7-8-8-9-9-9-9-9-----10-7-----------------------|
E|--5-5-5-5-5-5-5-4-3-3-3-3-5-5-6-6-7-7-7-7-7----------0---2---3---x---------|

e|---------------------------------------------------------------------------|
B|---------------------------------------------------------------------------|
G|---------------------------------------------------------------------------|
D|--7-7-7-7-7-7-7-6-5-5-5-5-7-7-8-8-9-9-9-9-9-8-7----------------------------|
A|--7-7-7-7-7-7-7-6-5-5-5-5-7-7-8-8-9-9-9-9-9-----10-7-----------------------|
E|--5-5-5-5-5-5-5-4-3-3-3-3-5-5-6-6-7-7-7-7-7----------0---2---3---x---------|

e|---------------------------------------------------------------------------|
B|---------------------------------------------------------------------------|
G|---------------------------------------------------------------------------|
D|-----7------7-7-6-----5---------------9-----8-7----------------------------|
A|------------------------------------------------10-7-----------------------|
E|-5-5---5-5--------3-3---3-5-5-6-6-7-7---7-7----------0-0-2-2-3-3-4---------|

e|---------------------------------------------------------------------------|
B|-----------------------------------------------------7-7-7-7-7-7-7---------|
G|-----------------------------------------------------9b9b9b9b9b9b9b--------|
D|-----7------7-7-6-----5---------------9-----8-7----------------------------|
A|------------------------------------------------10-x-----------------------|
E|-5-5---5-5--------3-3---3-5-5-6-6-7-7---7-7--------------------------------|

[Outro] 
"Supermassive Black Hole..." - Either intro riff or one of a couple of different
ones, here's the HAARP ending:
e|---------------------------------------------------------------------------|
B|---------------------------------------------------------------------------|
G|---------------------------------------------------------------------------|
D|---------------------------------------------------------------------------|
A|-----------------------------5-7-----------------------------5-7-----------|
E|-0---1---2---3---4---5---6-7-----0---1---2---3---4---5---6-7---------------|

e|---------------------------------------------------------------------------|
B|---------------------------------------------------------------------------|
G|-------------------------------------------------------(Kaoss Pad)---------|
D|---------------------------------------------------------------------------|
A|-2---3---4---5---6---7-------5-7-2---3---4---5---6---7---------------------|
E|-0---1---2---3---4---5---6-7-----0---1---2---3---4---5---------------------|

e|---------------------------------------------------------------------------|
B|---------------------------------------------------------------------------|
G|---------------------------------------------------------------------------|
D|---------------------------------------------------------------------------|
A|-2-------------------------------------------------------------------------|
E|-0-----////////////////////------------------------------------------------|


************************************

| h  Hammer-on
| p  Pull-off
| r  Release
| b  Bend
| x  Dead note
| /  Slide up
| (Kaoss Pad) 

************************************

            
            
Suggest correction
Creating personal tab
Creating personal tab
You can edit any tab online and save it as your Personal.

You can edit, replace or remove any tab part or add personal notes – all changes will be seen only by you.

Personal tabs can be accessed anytime from any device, even offline.
Learn more »
comments
print report bad tab
14 comments total. Showing first comments.
0 reply
jakeyt 84 May 19, 2008 07:34 AM

Excellent! absoloutley perfect! Ive been trying to work out those little bits since i got the cd! Well done! Top marks and 5 stars to you!

0 reply
csc501 487 Jul 12, 2008 02:42 AM

Generally got it - solo's not right though, too few notes.

0 reply
guitar-dude3009 30 Dec 26, 2008 07:09 PM

i think it would sound better with half-step down. either than that awesome tab!

guest
You may want to rate the tab now too:
select rating
Wanna post a correction for this tab? Suggest correction