Oops, an error
Loading. Please wait.

Supremacy bass

version 2
version 2

Whole song

Interactive

by Muse
53,839 views 135 this week
10 commentsread comments
1 2 3 4 5
x 31
add to favorites
×
Save as Personal and add changes to this tab that will be seen only by you. Learn more ›
×
You can save this tab as Personal to edit and correct it or add notes. All changes will be seen only by you. Learn more »
launch autoscroll
font size
0
reset
guitar tuner
backing track
0:00
0:00
edit
Autoscroll
slow
fast
+/-
esc
set tempo
stop
Author
Difficulty
Band: Muse
Song: Supremacy
Album: The 2nd Law (2012)
Bassist: Chris Wolstenholme
Tuning: Standard

Intro:

G|----------------------------------------------------------------------------------|
D|----------------------------------------------------------------------------------|
A|--------12-12-12-12\--------14-14-14-14\--------15-15-15-15\--------17-17-17-17\--|
E|----------------------------------------------------------------------------------|

No bass, just guitar till 0:21

Main Riff:

G|--------------------------------|-------------------------------5-|
D|---------2-----3-----2------567-|-----------2-----3-----2----567--|
A|0--3--0-----0-----0-----0--0---0|(0)--3--0-----0-----0-----0------|
E|--------------------------------|---------------------------------|

G|--------------------------------|
D|---------2-----3-----2------567-|
A|0--3--0-----0-----0-----0--0----|
E|--------------------------------|

G|------------------------------------------------------------------------|
D|---7-7-7-7----9-9-9-9----10-10-10-10----12-12-12-12---13-13-13-13-13-13-|
A|0----------0----------0--------------0--------------0-------------------|
E|------------------------------------------------------------------------|

Verse:

G|----------------------------------------------------------------------|
D|----------------------------------------------------------------------|
A|0---------------------------7------7------5------5----5---------------|
E|-----0-5----0-5----0-5----0------7------7------5--------5----0-5----0-|

G|--------------------------------------------------------|
D|--------------------------------------------------------|
A|--------------7------7------5------5----5---------------|
E|5----0-5----0------7------7------5--------5----0-5----0-|

G|------------------------------------------------------------|
D|------------------------------------------------------------|
A|8-8888-888-888-------------------------------7-7777-777-777-|
E|---------------8-8888-888-888-5-5555-555-555----------------|

G|------------------------------------------------------------|
D|------------------------------------------------------------|
A|8-8888-888-888-5-5555-555-555-7-7777-777-777----------------|
E|---------------------------------------------0~-------------|

Play Main Riff:

Play Verse part during guitar solo:

Play Intro part:

Fast part before Main Riff:

G|------------------------------|------------------------------5\-|
D|---------222---333---222---756|7--------222---333---222---567---|
A|000333000---000---000---000---|-00333000---000---000---000------|
E|------------------------------|---------------------------------|

G|----------------------------------------------------------------|
D|7575757575757575757575757575757575757575757575757575757575757575|
A|----------------------------------------------------------------|
E|----------------------------------------------------------------|

(32 pairs of 7 and 5 if You're interested)

Play main riff one more time:

Last note - 0 on A string :)

/  slide up
\  slide down
h  hammer-on
p  pull-off
~  let ring

            
            
Suggest correction
Creating personal tab
Creating personal tab
You can edit any tab online and save it as your Personal.

You can edit, replace or remove any tab part or add personal notes – all changes will be seen only by you.

Personal tabs can be accessed anytime from any device, even offline.
Learn more »
comments
print report bad tab
10 comments total. Showing first comments.
-1 reply
EvilRhino229 10 Nov 03, 2012 09:37 AM

I don't think this is how it's meant to be played in standard tuning...
Problem is, I don't know exactly what tuning it is in, but I'm pretty sure all the strings are tuned a half step up.
Still, it was pretty helpful, thanks for the tab!

+1 reply
4useless 2,618 Nov 04, 2012 03:42 AM

Chris plays this song on standard tuned bass, usually his signature model.

0 reply
EXFRAWEN 10 Jan 27, 2013 12:24 PM

thanks for this, I actually like to play the guitar intro with your bass notes, so I don't have to drop down to A like the other tabs say =P

guest
You may want to rate the tab now too:
select rating
Wanna post a correction for this tab? Suggest correction