Oops, an error
Loading. Please wait.

The Globalist tab

version 2
version 2

Whole song

Interactive

by Muse
1,948 views 6 this week
1 commentread comment
1 2 3 4 5
x 5
add to favorites
×
Save as Personal and add changes to this tab that will be seen only by you. Learn more ›
×
You can save this tab as Personal to edit and correct it or add notes. All changes will be seen only by you. Learn more »
launch autoscroll
font size
0
reset
how to read this tab
guitar tuner
edit
Autoscroll
slow
fast
+/-
esc
set tempo
stop
-------------------------------------------------------------------------------
                             THE GLOBALIST - Muse
-------------------------------------------------------------------------------
Tabbed by: tbob13 and Traum (slide solo) 
Tuning: AADGBE or on 7-string- AEADGBE

Slide solo:

E|------------------------------------------------------------------------------------------------
B|------------------------------------------------------------------------------------------------
G|---4/9---9---9---9---7/5/7---/11---11/12---9/7/9---/14---14/15---15---15\12---14---14---14\11---
D|------------------------------------------------------------------------------------------------
A|------------------------------------------------------------------------------------------------
A|------------------------------------------------------------------------------------------------

E|------------------------------------------------------------------------------------------
B|------------------------------------------------------------------------------------------
G|------9/11/15/17-17-17\12/14---9\7/9/12---7/9---7\5/7---9---7/9---7\5/7-----9---7\5/7\0---
D|------------------------------------------------------------------------------------------
A|------------------------------------------------------------------------------------------
A|------------------------------------------------------------------------------------------

Some slides in the verse but too much instruments coulnd't tab it properly. 


Heavy Riff:

e|-----------------------------------------------------------------------|
B|-----------------------------------------------------------------------|
G|-----------------------------------------------------------------------|
D|-----------------------------------------------------------------------| x4
A|-----------------------------------------------------------------------|
A|-12-0-0-12-0-0-12-0-0-12-0-0--6--6-/12-0-0-12-0-0-12-0-0-12-0-0--6--6/-|

e|-----------------------------------|
B|-----------------------------------|
G|-----------------------------------|
D|-----------------------------------| x2
A|-----------------------------------|
A|-10-0-0-10-0-0-10-0-0-10-0-0--9--9-|

*From here until the next asterix is technically the bass, but it sounds great on guitar
e|-------------------------------------------------------------------|
B|-------------------------------------------------------------------|
G|-------------------------------------------------------------------|
D|-------------------------------------------------------------------|
A|-------------------------------------------------------------------|
A|-7-0-0-7-0-0-7-0-0-7-0-0-5---5-----7-0-0-7-0-0-7-0-0-7-0-0-12--12--|

e|------------------------------------|
B|------------------------------------|
G|------------------------------------|
D|------------------------------------| x2
A|------------------------------------|
A|-13-0-0-13-0-0-13-0-0-13-0-0-10--10-|

e|------------------------------------|
B|------------------------------------|
G|------------------------------------|
D|------------------------------------| x2
A|------------------------------------|
A|-12-0-0-12-0-0-12-0-0-12-0-0-10--10-|

e|-----------------------------------------------------------------|
B|-----------------------------------------------------------------|
G|-----------------------------------------------------------------|
D|-----------------------------------------------------------------|
A|-----------------------------------------------------------------|
A|-5-0-0-5-0-0-5-0-0-5-0-0-3---3---5-0-0-5-0-0-5-0-0-5-0-0-8---8---|

e|-------------------------------|
B|-------------------------------|
G|-------------------------------|
D|-------------------------------| x2
A|-------------------------------|
A|-7-0-0-7-0-0-7-0-0-7-0-0-5---5-|

e|--------------------------------|
B|--------------------------------|
G|--------------------------------|
D|--------------------------------| x2
A|--------------------------------|
A|-5-0-0-5-0-0-5-0-0-5-0-0-3---3--|

e|---------------------------------------------------------------|
B|---------------------------------------------------------------|
G|---------------------------------------------------------------|
D|---------------------------------------------------------------|
A|---------------------------------------------------------------|
A|-3-0-0-3-0-0-3-0-0-3-0-0-7---7---3-0-0-3-0-0-3-0-0-3-0-0-9---9-|

e|-----------------------------------|
B|-----------------------------------|
G|-----------------------------------|
D|-----------------------------------| x2
A|-----------------------------------|
A|-10-0-0-10-0-0-10-0-0-10-0-0-9---9-|

e|-------------------------------------------------------------------|
B|-------------------------------------------------------------------|
G|-------------------------------------------------------------------|
D|-------------------------------------------------------------------|
A|-------------------------------------------------------------------|
A|-7-0-0-7-0-0-7-0-0-7-0-0-5---5-----7-0-0-7-0-0-7-0-0-7-0-0-12--12--|

e|------------------------------------|
B|------------------------------------|
G|------------------------------------|
D|------------------------------------| x2
A|------------------------------------|
A|-13-0-0-13-0-0-13-0-0-13-0-0-10--10-|

e|------------------------------------|
B|------------------------------------|
G|------------------------------------|
D|------------------------------------| x2
A|------------------------------------|
A|-12-0-0-12-0-0-12-0-0-12-0-0-10--10-|

e|-----------------------------------------------------------------|
B|-----------------------------------------------------------------|
G|-----------------------------------------------------------------|
D|-----------------------------------------------------------------|
A|-----------------------------------------------------------------|
A|-5-0-0-5-0-0-5-0-0-5-0-0-3---3---5-0-0-5-0-0-5-0-0-5-0-0-8---8---|

e|-------------------------------|
B|-------------------------------|
G|-------------------------------|
D|-------------------------------| x2
A|-------------------------------|
A|-7-0-0-7-0-0-7-0-0-7-0-0-5---5-|

e|--------------------------------|
B|--------------------------------|
G|--------------------------------|
D|--------------------------------| x2
A|--------------------------------|
A|-5-0-0-5-0-0-5-0-0-5-0-0-3---3--|

e|----------------------------------------------------------------|
B|----------------------------------------------------------------|
G|----------------------------------------------------------------|
D|----------------------------------------------------------------|
A|----------------------------------------------------------------|
A|-3-0-0-3-0-0-3-0-0-3-0-0-7---7---3-0-0-3-0-0-3-0-0-3-0-0-10--10-|

*This is where the guitar joins the bass
e|-----------------------------------------------------------------------|
B|-----------------------------------------------------------------------|
G|-----------------------------------------------------------------------|
D|-----------------------------------------------------------------------| x2
A|-----------------------------------------------------------------------|
A|-12-0-0-12-0-0-12-0-0-12-0-0--6--6-/12-0-0-12-0-0-12-0-0-12-0-0--6--6/-|

e|------------------------------------|
B|------------------------------------|
G|------------------------------------|
D|------------------------------------| x4
A|------------------------------------|
A|-13-0-0-13-0-0-13-0-0-13-0-0-10--10-|

Part 2: 6:14

For this second part, matt plays with an earplug laced in between the ADG strings to mute them while he
plays on the B-string. Mute the e-string with your left hand. 

e|----------------------------------------------------------------|
B|-10-10-10-5-5-5-10-10-10-13-13-13-12-12-12-10-10-10-9-9-9-5-5-5-|
G|----------------------------------------------------------------|
D|----------------------------------------------------------------|
A|----------------------------------------------------------------|
A|----------------------------------------------------------------|

e|------------------------------------------------------------------------|
B|12-12-12-15-15-15-13-13-13-12-12-12-13-13-13-10-10-10-13-13-13-17-17-17-|
G|------------------------------------------------------------------------|
D|------------------------------------------------------------------------|
A|------------------------------------------------------------------------|
A|------------------------------------------------------------------------|

e|------------------------------------------------------------------------|
B|15-15-15-13-13-13-15-15-15-10-10-10-15-15-15-18-18-18-17-17-17-15-15-15-|
G|------------------------------------------------------------------------|
D|------------------------------------------------------------------------|
A|------------------------------------------------------------------------|
A|------------------------------------------------------------------------|

e|-------------------------------------------------|
B|-13-13-13-10-10-10-13-13-13-10-10-10-13-13-10-10-|
G|-------------------------------------------------|
D|-------------------------------------------------|
A|-------------------------------------------------|
A|-------------------------------------------------|

e|----------------------------------------|
B|12-12-12-9-9-9-12-12-12-9-9-9-12-12-9-9-|
G|----------------------------------------|
D|----------------------------------------|
A|----------------------------------------|
A|----------------------------------------|

e|-------------------------------------------------|
B|-13-13-13-10-10-10-13-13-13-10-10-10-13-13-10-10-|
G|-------------------------------------------------|
D|-------------------------------------------------|
A|-------------------------------------------------|
A|-------------------------------------------------|

e|-------------------------------------|
B|-11-11-11-11-11-11-10-10-10-10-10-10-|
G|-------------------------------------|
D|-------------------------------------|
A|-------------------------------------|
A|-------------------------------------|

            
            
Suggest correction
Creating personal tab
Creating personal tab
You can edit any tab online and save it as your Personal.

You can edit, replace or remove any tab part or add personal notes – all changes will be seen only by you.

Personal tabs can be accessed anytime from any device, even offline.
Learn more »
comments
print report bad tab
1 comment total.
0 reply
Omeyr 15 Jun 14, 2015 04:24 AM

You messed up the slide guitar part. The notes are not correct

guest
You may want to rate the tab now too:
select rating
Wanna post a correction for this tab? Suggest correction