Oops, an error
Loading. Please wait.
We have an official The Handler tab made by UG professional guitarists. Check out the tab »
×
by Muse
43,671 views 123 this week
14 commentsread comments
1 2 3 4 5
x 42
add to favorites
×
Save as Personal and add changes to this tab that will be seen only by you. Learn more ›
×
You can save this tab as Personal to edit and correct it or add notes. All changes will be seen only by you. Learn more »
launch autoscroll
font size
0
reset
guitar tuner
backing track
0:00
0:00
edit
Autoscroll
slow
fast
+/-
esc
set tempo
stop
-------------------------------------------------------------------------------
                             The Handler - Muse
-------------------------------------------------------------------------------
Tabbed by: Muser00
E-mail: 

Tuning: Drop D

[Intro]
(0:07)

G|----------------------------------|x2
D|----------------------------------|
A|-5--------------------------------|
D|---0-0-0-3-3-/7-7-7-7---8\0---7\0-|


[Verse]

G|----------------------------------|x4
D|----------------------------------|
A|-5--------------------------------|
D|---0-0-0-3-3-/7-7-7-7---8\0---7\0-|


[Chorus]

(Difficult timely)

G|-------12-15-14-12-----------------------9-11-12-13-14-14-141414-12-------|
D|----12-------------15-14-12--12-------6-9---------------------------15-14-|
A|-10------------------------12--12-8-7-------------------------------------|
D|--------------------------------------------------------------------------|

G|-------12-15-14-12-----------------------9-11-12-13-14-14-x141414-|
D|----12-------------15-14-12--12-------6-9-------------------------|
A|-10------------------------12--12-8-7-----------------------------|
D|------------------------------------------------------------------|


[Riff]

G|----------------------------------|x2
D|----------------------------------|
A|-5--------------------------------|
D|---0-0-0-3-3-/7-7-7-7---8\0---7\0-|


[Verse]

G|----------------------------------| 
D|----------------------------------|
A|-5--------------------------------|
D|---0-0-0-3-3-/7-7-7-7---8\0---7\0-|

G|---------------------------------15~----------14~-| 
D|---------------------------12-15--------11-14-----|
A|-5----------------------13-----------12-----------|
D|---0-0-0-3-3-/7-7-7-7-----------------------------|

G|----------------------------------| 
D|----------------------------------|
A|-5--------------------------------|
D|---0-0-0-3-3-/7-7-7-7---8\0---7\0-|

G|---------------------------------15~----------14~-| 
D|---------------------------12-15--------11-14-----|
A|-5----------------------13-----------12-----------|
D|---0-0-0-3-3-/7-7-7-7-----------------------------|


[Chorus]

G|-------12-15-14-12-----------------------9-11-12-13-14-14-141414-12-------|
D|----12-------------15-14-12--12-------6-9---------------------------15-14-|
A|-10------------------------12--12-8-7-------------------------------------|
D|--------------------------------------------------------------------------|

G|-------12-15-14-12-----------------------9-11-12-13-14-14-x141414-|
D|----12-------------15-14-12--12-------6-9-------------------------|
A|-10------------------------12--12-8-7-----------------------------|
D|------------------------------------------------------------------|


[Solo]

G|----------------------------------|x2
D|----------------------------------|
A|-5--------------------------------|
D|---0-0-0-3-3-/7-7-7-7---8\0---7\0-|


[Solo] 
2:28 
( with pick )

G|---------|
D|---------|
A|-5-(x64)-|
D|---------|

G|--------------------------------------------------|x2
D|--------------------------------------------------|
A|-5-(x32)-1-(x32)-0-(x32)-10-(x32)-8-(x32)-4-(x32)-|
D|--------------------------------------------------|


[Bridge] 
( with pick )

G|--------------------------------------------------|
D|--------------------------------------------------|
A|-5-(x32)-1-(x32)-0-(x32)-10-(x32)-8-(x32)-4-(x32)-|
D|--------------------------------------------------|

G|---------------------------------|
D|---------------------------------|
A|-5-(x32)-1-(x32)-8-(x32)-4-(x32)-|
D|---------------------------------|

G|------------------|
D|------------------|
A|-5-(x32)-12-(x32)-|
D|------------------|


[Outro]

G|----------------------------------|x2
D|----------------------------------|
A|-5--------------------------------|
D|---0-0-0-3-3-/7-7-7-7---8\0---7\0-|

G|-----------------------------------------|
D|-----------------------------------------|
A|-----------------------------------------|
D|-----0-0-0-----0-0-0-----0-0-0-0-0--0~~~-|
 

************************************

| x  Dead note
| /  Slide up
| \  Slide down
| ~  Vibrato 

************************************

            
            
Suggest correction
Creating personal tab
Creating personal tab
You can edit any tab online and save it as your Personal.

You can edit, replace or remove any tab part or add personal notes – all changes will be seen only by you.

Personal tabs can be accessed anytime from any device, even offline.
Learn more »
comments
print report bad tab
14 comments total. Showing first comments.
+2 reply
Smu--tristan95 10 Jun 04, 2015 08:55 AM

looks great, thanks

+2 reply
lukyanov.nvk 10 Jun 06, 2015 09:05 AM, edited at 01:06 pm

Thanks

+4 reply
lukyanov.nvk 10 Jun 06, 2015 09:05 AM, edited at 01:10 pm

G|-------12-15-14-12-----------------------9-11-12-13-14--------14-12-------|
D|----12-------------15-14-12--12-------6-9--------------14--14-------15-14-|
A|-10------------------------12--12-8-7-------------------------------------|
D|--------------------------------------------------------------------------|

I hear that in 1st chorus

guest
You may want to rate the tab now too:
select rating
Wanna post a correction for this tab? Suggest correction