Oops, an error
Loading. Please wait.

Undisclosed Desires tab

version 2
version 2

Whole song

by Muse
20,896 views 12 this week
1 commentread comment
1 2 3 4 5
x 12
add to favorites
×
Save as Personal and add changes to this tab that will be seen only by you. Learn more ›
×
You can save this tab as Personal to edit and correct it or add notes. All changes will be seen only by you. Learn more »
launch autoscroll
font size
0
reset
how to read this tab
guitar tuner
backing track
0:00
0:00
edit
Autoscroll
slow
fast
+/-
esc
set tempo
stop
Author
Author : http://www.muselive.com/page.php?id=1415
Date : 29-09-2009 01:56

Standard Tuning
E,A,D,G,B,e

Verse:

e:-11-----------|-11------------|-10------------|-10---------------|
B:--------11----|--------11-----|--------11-----|-------11---------|
G:-----------12-|-----------12--|------------12-|-----------12-----|
D:--------------|---------------|---------------|------------------|
A:--------------|---------------|---------------|------------------|
E:--------------|---------------|---------------|------------------|

Repeat x2 for Intro
Repeat x4 for Verse

Chorus:

e:--------15-------------|--------15-------------|--------15---------------|
B:-----16----13-16-------|-----16---13-16-15-----|----15--------15---------|
G:-------------------15--|-----------------------|-----------15------------|
D:-----------------------|-----------------------|-----------------15------|
A:-----------------------|-----------------------|-------------------------|
E:-----------------------|-----------------------|-------------------------|

e:--------13-------------|
B:----15-------15--13----|
G:----------15-----------|
D:-----------------------|
A:-----------------------|
E:-----------------------|

Repeat x4

Backing Vocals in the last chorus:

e|------------------------------|---------------------------|
B|--8---------------------------|---8-----------------------|
G|----10-8----7~---10-8-7-8-8~--|-----10-8----7~---10~--7~--|
D|---------10-------------------|----------10---------------|
A|------------------------------|---------------------------|
E|------------------------------|---------------------------|

e|---------------------------|------------------------------|
B|--8------------------------|--8---------------------------|
G|-----10-8----7~---10~--7~--|----10-8----7~---10-8-7-8-8~--|
D|----------10---------------|---------10-------------------|
A|---------------------------|------------------------------|
E|---------------------------|------------------------------|


Order of Song:

Intro
Verse
Chorus
Verse
Chorus
Bridge (No Part)
Verse (Remain Static)
Chorus (Return to Playing)
Intro

            
            
Suggest correction
Creating personal tab
Creating personal tab
You can edit any tab online and save it as your Personal.

You can edit, replace or remove any tab part or add personal notes – all changes will be seen only by you.

Personal tabs can be accessed anytime from any device, even offline.
Learn more »
comments
print report bad tab
1 comment total.
0 reply
BigBalls17 744 Oct 15, 2016 09:29 AM

Thanks for uploading the correction on the chorus!

guest
You may want to rate the tab now too:
select rating
Wanna post a correction for this tab? Suggest correction