Oops, an error
Loading. Please wait.
We have an official Unnatural Selection tab made by UG professional guitarists. Check out the tab »
×

Unnatural Selection tab

by Muse
674 views 3 this week
no commentswrite comment
1 2 3 4 5
x 3
add to favorites
×
Save as Personal and add changes to this tab that will be seen only by you. Learn more ›
×
You can save this tab as Personal to edit and correct it or add notes. All changes will be seen only by you. Learn more »
launch autoscroll
font size
0
reset
how to read this tab
guitar tuner
backing track
0:00
0:00
edit
Autoscroll
slow
fast
+/-
esc
set tempo
stop
About this tab version
It's more accurate to the song. Was this info helpful? Yes No
Song Title: Unnatural Selection
Artist: Muse
Album: The Resistance
Tuning: D A D G B E (Drop D)

Intro (0:00-0:36)

Pre-Verse (0:37-0:49)
e|--------------------------------------------------------|
B|--------------------------------------------------------|
G|--------------------------------------------------------|
D|--------------------------------------------------------|
A|--------------------------------------------------8---8-|
D|5-5-5-5-5-5-5-5-5-5-5-5-5-5-5-5-5-5-5-5-5-5-5-5-5---5---|

e|-----------------------------------------------|
B|-----------------------------------------------|
G|-----------------------------------------------|
D|-----------------------------------------------|
A|------------------------6---6------------------|
D|5-5-5-5-5-5-5-5-5-5-5-5---5---5-5-5-5-5-5-5-5--|

e|-------------------|
B|-------------------|
G|-------------------|
D|-------3-4-----4-5-|
A|-------------------|
D|-3-0-3-----4-4-----|

Verse 1 (0:50-1:24)
e|------------------------------------------------------------------------|
B|------------------------------------------------------------------------|
G|------------------------------------------------------------------------|
D|------------------------------------------------------------3-4-----4-5-|
A|------------------------------------------------------------------------|
D|-5-5-5-5-5-5-5-5-8-5-8-9-10-8-10-11-11-12-0-0-0-0-0-0-3-0-3-----4-4-----|x6

Bridge (1:25-1:38)
e|-------------------------------------------------------------------|
B|--------------------------3-3-6-6--4-4-4-4-4-4-4-4-4-4-4-4-4-4-4-4-|
G|-3-3-3-3-2-2-2-2-3-3-5-5---------------------------2-2-2-2-2-2-2-2-|
D|-------------------------------------------------------------------|
A|-------------------------------------------------------------------|
D|-------------------------------------------------------------------|

e|------------------------------------------------------------------|
B|-3-3-3-3-1-1-1-1-3-3-1-1------------------------------------------|
G|--------------------------3-3-2-2-3-3-3-3-3-3-3-3-2-2-2-2-2-2-2-2-|
D|------------------------------------------------------------------|
A|------------------------------------------------------------------|
D|------------------------------------------------------------------|

e|-----------------------------------|
B|-----------------------------------|
G|-3---3---3---3---2---2---2---2-----|
D|---0---0---0---0---0---0---0---0-0-|
A|-----------------------------------|
D|-----------------------------------|

Chorus (1:39-2:00)
e|--------------3------3------|
B|--------------4------4------|
G|--------------5------3------|
D|-5--5x--------5------5------|
A|-5--5x-(x14)--3-(x8)-3-(x8)-|
D|-5--5x----------------------|

e|---------------------1------|
B|--------------3------3------|
G|--------------3------2------|
D|-3--3x--------3------3------|
A|-3--3x-(x14)--1-(x8)-1-(x8)-|
D|-3--3x----------------------|

e|------------------------------------|
B|------------------------------------|
G|------------------------------------|
D|------------------------------------|
A|------------------------------------|
D|-1-(x8)-2-(x8)-3-(x8)-4-(x8)-5-(x8)-|

e|---------------------|
B|----------------3/---|
G|----------------3/---|
D|----------------3/---|
A|----------------1/---|
D|-1-1-1-1-3-3-0-------|

Verse 2 (2:01-2:38)
e|-----|
B|-----|
G|-----|
D|-----|
A|-----|
D|-4---|

e|------------------------------------------------------------------------|
B|------------------------------------------------------------------------|
G|------------------------------------------------------------------------|
D|------------------------------------------------------------3-4-----4-5-|
A|------------------------------------------------------------------------|
D|-5-5-5-5-5-5-5-5-8-5-8-9-10-8-10-11-11-12-0-0-0-0-0-0-3-0-3-----4-4-----|x2

e|-----------------------------------------------------------------|
B|-----------------------------------------------------------------|
G|-----------------------------------------------------------------|
D|-----------------------------------------------------------------|
A|-----------------7x-7x-7x-7x-7x-7x-7x-7x-7x-7x-7x----------------|
D|-5-5-5-5-5-5-5-5-7x-7x-7x-7x-7x-7x-7x-7x-7x-7x-7x-12-0-0-0-0-0-0-|

e|---------------------------|
B|---------------------------|
G|---------------------------|
D|---------------------------|
A|7x-7x-7x-7x-7x-7x-7x-7x-7x-|
D|7x-7x-7x-7x-7x-7x-7x-7x-7x-|

e|-----------------------------------------------------------------------------------|
B|-----------------------------------------------------------------------------------|
G|-----------------------------------------------------------------------------------|
D|-----------------------------------------------------------------------3-4-----4-5-|
A|-----------------7x-7x-7x-7x-7x-7x-7x-7x-7x-7x-7x----------------------------------|
D|-5-5-5-5-5-5-5-5-7x-7x-7x-7x-7x-7x-7x-7x-7x-7x-7x-12-0-0-0-0-0-0-3-0-3-----4-4-----|

e|------------------------------------------------------------------------|
B|------------------------------------------------------------------------|
G|------------------------------------------------------------------------|
D|------------------------------------------------------------3-4-----4-5-|
A|------------------------------------------------------------------------|
D|-5-5-5-5-5-5-5-5-8-5-8-9-10-8-10-11-11-12-0-0-0-0-0-0-3-0-3-----4-4-----|x2

Bridge (2:39-2:54)
e|--------------------------------------------------------------------|
B|--------------------------3-3-6-6--4-4-4-4-4-4-4-4-4-4-4-4-4-4-4-4--|
G|-3-3-3-3-2-2-2-2-3-3-5-5---------------------------2-2-2-2-2-2-2-2--|
D|-------------------------------------------------------------------0|
A|--------------------------------------------------------------------|
D|--------------------------------------------------------------------|

e|------------------------------------------------------------------|
B|-3-3-3-3-1-1-1-1-3-3-1-1------------------------------------------|
G|--------------------------3-3-2-2-3-3-3-3-3-3-3-3-2-2-2-2-2-2-2-2-|
D|------------------------------------------------------------------|
A|------------------------------------------------------------------|
D|------------------------------------------------------------------|

e|--3---3---3---3---2---2---2---2--|
B|-3---3---3---3---3---3---3---3---|
G|---------------------------------|
D|---------------------------------|
A|---------------------------------|
D|---------------------------------|

Chorus (2:55-3:18)

Solo (3:18-5:34)
e|---------------------------|
B|---------------------------|
G|--------12+----------------|
D|---12+---------------------|
A|---------------------------|
D|---------------------------|

e|------------------------------------------|
B|------------------------------------------|
G|------------------------------------------|
D|--------------------------------------10b-|
A|-------------------------12b---10-9~------|
D|-5-----5/12\-1---10~--12------------------|

e|----------------------------------------------------------------|
B|----------------------------------------------------------------|
G|----------------------------------------------------------------|
D|------------------------------------------------------------10b-|
A|-----------------------------------------------12b---10-9~------|
D|-5--5-5--5-12--12--12--1--1-1--1-10--10--10-12------------------|

e|-----------------------------------------------------------------|
B|-----------------------------------------11--11b---11b---11b-----|
G|--12b------12------12-----------10h12p10-------------------------|
D|-----------------------------------------------------------------|
A|-----------------------------------------------------------------|
D|-----------------------------------------------------------------|

e|-----------------------------------------|
B|----10b--10b-10--10b----10b---10--8---8--|
G|-----------------------------------------|
D|-----------------------------------------|
A|-----------------------------------------|
D|-----------------------------------------|

e|--------------------------------------------------|
B|-8---8---8---8---8---8---8---8-----8---8---8---8--|
G|---7---7---7---7---7---7---7---7-8---8---8---8---8|
D|--------------------------------------------------|
A|--------------------------------------------------|
D|--------------------------------------------------|

e|-------------------------------------------------------------------|
B|-10---10---10---10---10-11---11---11---11---11---11---11---11---11-|
G|----8----8----8----8-------7----7----7----7----7----7----7----7----|
D|-------------------------------------------------------------------|
A|-------------------------------------------------------------------|
D|-------------------------------------------------------------------|

e|-----------------8b-------|
B|-11-8-10------------------|
G|-----------0-3-0----------|
D|--------------------------|
A|--------------------------|
D|--------------------------|

e|-----------------------------------------------------------------|
B|-----------------------------------------------------------------|
G|-----------------------------------------------------------------|
D|--------------------------------------------------------------10-|
A|-------------------------------------------------12b--10-9~------|
D|-5-----------12-----------1--1-1-----10------12------------------|

e|----------------------------------------------------------------|
B|----------------------------------------------------------------|
G|----------------------------------------------------------------|
D|----------------------------------------------------------------|
A|-----------------------------------------------12b---10-9~------|
D|-5--5-5--5-12--12--12--1--1-1--1-10--10--10-12------------------|

Bridge (5:35-5:54)
e|-------------------------------------------------------------------|
B|--------------------------3-3-6-6--4-4-4-4-4-4-4-4-4-4-4-4-4-4-4-4-|
G|-3-3-3-3-2-2-2-2-3-3-5-5---------------------------2-2-2-2-2-2-2-2-|
D|-------------------------------------------------------------------|
A|-------------------------------------------------------------------|
D|-------------------------------------------------------------------|

e|------------------------------------------------------------------|
B|-3-3-3-3-1-1-1-1-3-3-1-1------------------------------------------|
G|--------------------------3-3-2-2-3-3-3-3-3-3-3-3-2-2-2-2-2-2-2-2-|
D|------------------------------------------------------------------|
A|------------------------------------------------------------------|
D|------------------------------------------------------------------|

e|----------------------------------|
B|----------------------------------|
G|-3---3---3---3---2---2---2---2----|
D|---0---0---0---0---0---0---0---0--|
A|---------------------------------0|
D|----------------------------------|

e|--3---3---3---3---2---2---2---2--|
B|-3---3---3---3---3---3---3---3---|
G|---------------------------------|
D|---------------------------------|
A|---------------------------------|
D|---------------------------------|x2

Chorus (5:55-6:27)

Pre-Outro
e|---------------------|
B|----------------3----|
G|----------------3----|
D|----------------3----|
A|----------------1----|
D|-1-1-1-1-3-3-0-------|x2

e|---------------------|
B|----------------3----|
G|----------------3----|
D|----------------3----|
A|----------------1----|
D|-----4-----3---------|

Outro (6:27-6:52)
e|------|
G|------|
B|------|
D|------|
A|------|
D|-4---0|

e|-------------------------------------------------|
B|-------------------------------------------------|
G|-------------------------------------------------|
D|-------------------------------------------------|
A|--------8--------7-----7-------6--------5-----5--|
D|--5--5-----5--5-----5-----5--5-----5--5-----5----|x3

e|--------------------------2--|
B|--------------------------2--|
G|-----------------------------|
D|-----------------------------|
A|--------8--------7-----------|
D|--5--5-----5--5-----5--5-----|

e|-------------------------------------------------------|
B|-------------------------------------------------------|
G|-------------------------------------------------------|
D|-------------------------------------------------------|
A|---------8----------7----7---------6---------5------5--|
D|--5x--5x—8--5x--5x--7--5—7--5x--5x—6--5x--5x—5--5x--5--|

e|-------------------------------------3-3-3-3-3-|
B|-------------------------------------3-3-3-3-3-|
G|-------------------------------------3-3-3-3-3-|
D|-----------------------------------------------|
A|----------8----------7------7------------------|
D|--5x--5x--8--5x--5x--7--5x--7--5x--5x----------|

e|-------------------------------------------------------|
B|-------------------------------------------------------|
G|-------------------------------------------------------|
D|-------------------------------------------------------|
A|----------8---------7------7----------6----------5-5-5-|
D|--5x--5x--8--5x--5x—7--5x--7--5x--5x--6--5x--5x—-5-5-5-|

| /   slide up   | \   slide down   | h   hammer-on   | p   pull-off
| ~   vibrato    | +   harmonic     | x   Mute note   | b   Bend

            
            
Suggest correction
Creating personal tab
Creating personal tab
You can edit any tab online and save it as your Personal.

You can edit, replace or remove any tab part or add personal notes – all changes will be seen only by you.

Personal tabs can be accessed anytime from any device, even offline.
Learn more »
Give kudos to tab author, rate the tab!
1 2 3 4 5
comments
print report bad tab
guest
You may want to rate the tab now too:
select rating
Wanna post a correction for this tab? Suggest correction