Oops, an error
Loading. Please wait.

Qwerty tab

version 1
version 1

Whole song

Interactive

2,959 views 63 this week
1 commentread comment
1 2 3 4 5
x 4
add to favorites
×
Save as Personal and add changes to this tab that will be seen only by you. Learn more ›
×
You can save this tab as Personal to edit and correct it or add notes. All changes will be seen only by you. Learn more »
launch autoscroll
font size
0
reset
how to read this tab
guitar tuner
edit
Autoscroll
slow
fast
+/-
esc
set tempo
stop
Drop B: B F# B E G# c# (up to down)

[Verse 1]

One shot heard around the world...
c#|-----------------------------------------|
G#|-----------------------------------------|
E |-----------------------------------------|
B |-----------------------------------------| x4
F#|-----------------------------------------|
B |----3-3------------------3-3-------------|

Bitch slappin' smack rappin' Kick you in the bass drum
c#|------------------------------------------------------|
G#|------------------------------------------------------|
E |------------------------------------------------------|
B |------------------------------------------------------|
F#|------------------------------------------------------|
B |3-3---------3-3------------3-3---------------3-3------|

 BOOM! BOOM! Alpha to Zulu I'm here to say FUCK YOU!!
c#|------------------------------------------------------|
G#|------------------------------------------------------|
E |------------------------------------------------------|
B |------------------------------------------------------|
F#|------------------------------------------------------|
B |---------3-3----------3-3--------3-3------------------|

        I had a bad day
c#|--------------------------------------------|
G#|--------------------------------------------|
E |--------------------------------------------|
B |--------------------------------------------|
F#|--------------------------------------------|
B |--3-3----------3-3--------3-3---------------|

[Pre Chorus]
     
            With her angel's wings...
c#|-------------------------------|
G#|-------------------------------|
E |-------------------------------|
B |-------------------------------|   x4
F#|-------------------------------|
B|3-3-3-3-0-0-0-0-1-1-1-1-2-2-2-2|

c#|---------------------|
G#|---------------------|
E |---------------------|
B |---------------------|  
F#|-3-3-3-1-2-----------|
B |-3-3-3-1-2-----------|

[Chorus]

Fall in line glorify...
c#|-------------------------------------------|
G#|-------------------------------------------|
E |-------------------------------------------|
B |-------------------------------------------| x2
F#|-------------------------------------------|
B |-0---1--2--0---1--2--0---1--2--0---1--2----|

Punishment don't fit the crime of...
c#|--------------------------------------------|
G#|--------------------------------------------|
E |--------------------------------------------|
B |--------------------------------------------| x2
F#|-6---7--8--6---7--8--6---7--8--6---7--8-----|
B |-6---7--8--6---7--8--6---7--8--6---7--8-----|

c#|--------------------------------------------|
G#|--------------------------------------------|
E |--------------------------------------------|
B |--------------------------------------------|
F#|-1--------7----------0---------6------------|
B |-1--------7----------0---------6------------|

[Verse 2]

 One shot heard around the world gonna bring it to a head 
c#|-----------------------------------------------------6---|
G#|----6------------------7-6---------------------6---------|
E |---------------------------------------------------------|
B |---------------------------------------------------------|
F#|---------------------------------------------------------|
B |---------------------------------------------------------|

we're gonna show the world that it was once said 
c#|-------------------4---6----------6-------------|
G#|-----------------------------------------6------|
E |------------------------------------------------|
B |------------------------------------------------|
F#|------------------------------------------------|
B |------------------------------------------------|

whatever the cost we will never surrender leave abandoned the loss
c#|------------------------------------12/9-------------------6--9----------------|
G#|-----------6---9---------------------------------------------------------------|
E |-------------------------------------------------------------------------------|
B |----------------------------------------------------------------------7-6-5-4--|
F#|-------------------------------------------------------------------------------|
B |-------------------------------------------------------------------------------|

When the rich wage war And the patriotic whores
c#|-----------------------------------------------|
G#|----------6-----------7---6--------------------|
E |-----------------------------------------------|
B |----------3-----------4---3--------------------|
F#|-----------------------------------------------|
B |-----------------------------------------------|

Dig their own grave For their own sake
c#|----------------------------------------------|
G#|-5---6---------------7---6--------------------|
E |----------------------------------------------|
B |-2---3---------------4---3--------------------|
F#|----------------------------------------------|
B |----------------------------------------------|

Another casualty Another travesty, another
c#|-----------------------------------------|
G#|-5---6----------7---6----------------5---|
E |-----------------------------------------|
B |-2---3----------4---3----------------2---|
F#|-----------------------------------------|
B|-----------------------------------------|

[Pre Chorus]
     
motherfucking German shepherd...
c#|-------------------------------|
G#|-------------------------------|
E |-------------------------------|
B |-------------------------------|   x4
F#|-------------------------------|
B |3-3-3-3-0-0-0-0-1-1-1-1-2-2-2-2|


c#|---------------------|  |--------------------|
G#|---------------------|  |--------------------|
E |---------------------|  |--------------------|
B |---------------------|  |--------------------|
F#|-3-3-3-1-2-----------|  |-3-3-3-1-2---1------|
B |-3-3-3-1-2-----------|  |-3-3-3-1-2---1------|

[Chorus]

Fall in line glorify...
c#|-------------------------------------------|
G#|-------------------------------------------|
E |-------------------------------------------|
B |-------------------------------------------| x2
F#|-------------------------------------------|
B |-0---1--2--0---1--2--0---1--2--0---1--2----|

Punishment don't fit the crime of...
c#|-----------------------------------------------------------------|
G#|-----------------------------------------------------------------|
E |-----------------------------------------------------------------|
B |-----------------------------------------------------------------| x2
F#|-----------------------------------------------------------------|
B |-0-0-0-0-1-1-2-2-0-0-0-0-1-1-2-2-0-0-0-0-1-1-2-2-0-0-0-0-1-1-2-2-|

[Solo]

c#|--------------------------------------------|
G#|--------------------------------------------|
E |--------------------------------------------|
B |--------------------------------------------| x2
F#|-6---7--8--6---7--8--6---7--8--6---7--8-----|
B |-6---7--8--6---7--8--6---7--8--6---7--8-----|

c#|-------------------------------|
G#|-------------------------------|
E |-------------------------------|
B |-------------------------------|   x4
F#|-------------------------------|
B |0-0-0-0-1-1-1-1-2-2-2-2-3-3-3-3|

c#|-------------------------------|
G#|-------------------------------|
E |-------------------------------|
B |-------------------------------|   x4
F#|-1-------7-------0--------6----|
B |-1-------7-------0--------6----|

[Verse 3]

One shot heard around the world
Gonna bring it to a head                 (no guitar)
We're gonna show the world that it was

Once said    Whatever the cost
c#|--------------------------------------|
G#|--------------------------------------|
E |--------------------------------------|
B |--------------------------------------|   
F#|-----x-x-x-x--------------x-x-x-x-----|
B |-----x-x-x-x--------------x-x-x-x-----|

We will never surrender Leave abandoned the loss
c#|------------------------------------------------|
G#|------------------------------------------------|
E |------------------------------------------------|
B |------------------------------------------------|   
F#|-------x-x-x-x-----------------x-x-x-x----------|
B |-------x-x-x-x-----------------x-x-x-x--7-6-5-4-|

When the rich wage war And the patriotic whores....
c#|---------------------------------------------|
G#|---------------------------------------------|
E |---------------------------------------------| x3
B |---------------------------------------------|  
F#|------------------3----------------------2---|
B |---------3--------------------3--------------|

[Final]
     

c#|-------------------------------|
G#|-------------------------------|
E |-------------------------------|
B |-------------------------------|   x4
F#|-------------------------------|
B |3-3-3-3-0-0-0-0-1-1-1-1-2-2-2-2|

c#|---------------------|  
G#|---------------------|  
E |---------------------|  
B |---------------------|  
F#|-3-3-3-1-2-----------|  
B |-3-3-3-1-2-----------|



***********************************

| h  hammer-on
| p  pull-off
| x  deadnote
| /  slideup
| pb Pre-bend
| ~  vibrato
| b  bend

***********************************

            
            
Suggest correction
Creating personal tab
Creating personal tab
You can edit any tab online and save it as your Personal.

You can edit, replace or remove any tab part or add personal notes – all changes will be seen only by you.

Personal tabs can be accessed anytime from any device, even offline.
Learn more »
comments
print report bad tab
1 comment total.
0 reply
antonior.ar1642 10 Aug 10, 2017 09:40 AM

They play a 7 string but the tab sounds right

guest
You may want to rate the tab now too:
select rating
Wanna post a correction for this tab? Suggest correction