Oops, an error
Loading. Please wait.

We Are The Truth 3 0 tab

version 1
version 1

Whole song

Interactive

52 views 3 this week
no commentswrite comment
1 2 3 4 5
3 more votes to show rating
add to favorites
×
Save as Personal and add changes to this tab that will be seen only by you. Learn more ›
×
You can save this tab as Personal to edit and correct it or add notes. All changes will be seen only by you. Learn more »
launch autoscroll
font size
0
reset
how to read this tab
guitar tuner
edit
Autoscroll
slow
fast
+/-
esc
set tempo
stop
Artist: Mushroomhead
Song: We Are The Truth 3.0
Album: The Righteous & The Butterfly
Words: Mushroomhead
Music: Mushroomhead
Copyright: Mushroomhead
Tabber: AlexRex360
Tempo = 87
Tommy Church Guitar

[Intro]
(Guitar 1)
E|----------------------------------------------------|-------|
B|----------------------------------------------------|-------|
G|--4-----4-------------------------------------------|-------|
D|--2-----2-------------------------------------------|-------|(x4)
A|--2-----2-------------------------------------------|-------|
D|--2-----2-------------------------------------------|-------|

                            ^     ^     ^  v  ^  ^
E|----------------------------------------------------|
B|----------------------------------------------------|
G|--4-----4--------4-----4--4-----4-----7s-9--9--9----|
D|--2-----2--------2-----2--2-----2-----xs-x--x--x----|(x4)
A|--2-----2--------2-----2--2-----2-----5s-7--7--7----|
D|--2-----2--------2-----2--2-----2-------------------|

E|----------------------------------------------------|
B|----------------------------------------------------|
G|--4-----4--------4-----4--4-----4--------4-----4----|
D|--2-----2--------2-----2--2-----2--------2-----2----|(x8)
A|--2-----2--------2-----2--2-----2--------2-----2----|
D|--2-----2--------2-----2--2-----2--------2-----2----|

[Verse]
                            ^     ^     ^  v  ^  ^
E|----------------------------------------------------|
B|----------------------------------------------------|
G|--4-----4--------4-----4--4-----4-----7s-9--9--9----|
D|--2-----2--------2-----2--2-----2-----xs-x--x--x----|(x8)
A|--2-----2--------2-----2--2-----2-----5s-7--7--7----|
D|--2-----2--------2-----2--2-----2-------------------|

(Guitar 2)                         
E|----------------|-------|
B|----------------|-------|
G|--9-----8--7----|-------|
D|----------------|--2----|(x2)
A|--7-----6--5----|-------|
D|----------------|--2----|
                                                                          
E|----------------|-------|----------------|-------|
B|----------------|-------|----------------|-------|
G|--9-----8--11---|-------|--9-----8--7----|-------|
D|----------------|--2----|----------------|--2----|
A|--7-----6--9----|-------|--7-----6--5----|-------|
D|----------------|--2----|----------------|--2----|

[Refrain]
(Guitar 1)
E|----------------------------------------------------|
B|----------------------------------------------------|
G|--------------------------9--7-----7-----9----------|
D|--2-----------------------x--x-----x-----x----------|
A|--2-----2M-2M-2M-2M-2M-2M-7--5-----5-----7-----0----|
D|--2-----2M-2M-2M-2M-2M-2M----------------------0----|

(Guitar 2)
E|----------------------------------------------------|
B|----------------------------------------------------|
G|----------------------------------------------------|
D|--2-----------------------7--5-----5-----7----------|
A|--2-----2M-2M-2M-2M-2M-2M-7--5--x--5-----7-----0----|
D|--2-----2M-2M-2M-2M-2M-2M-7--5--x--5-----7-----0----|
                                              
E|----------------------------------------------------|
B|----------------------------------------------------|
G|----------------------------------------------------|
D|--2-------------------------------------------------|
A|--2-----2M-2M-2M-2M-2M-2M-7--6--5----------[7]~-----|
D|--2-----2M-2M-2M-2M-2M-2M----------9--8--7----------|

(Guitar 1)
E|----------------------------------------------------|
B|----------------------------------------------------|
G|--------------------------9--7-----7-----9----------|
D|--2-----------------------x--x-----x-----x----------|
A|--2-----2M-2M-2M-2M-2M-2M-7--5-----5-----7-----0----|
D|--2-----2M-2M-2M-2M-2M-2M----------------------0----|

(Guitar 2)
E|----------------------------------------------------|
B|----------------------------------------------------|
G|----------------------------------------------------|
D|--2-----------------------7--5-----5-----7----------|
A|--2-----2M-2M-2M-2M-2M-2M-7--5--x--5-----7-----0----|
D|--2-----2M-2M-2M-2M-2M-2M-7--5--x--5-----7-----0----|
                                             
E|----------------------------------------------------|
B|----------------------------------------------------|
G|----------------------------------------------------|
D|--2-------------------------------------------------|
A|--2-----2M-2M-2M-2M-2M-2M-7--6--5-------------------|
D|--2-----2M-2M-2M-2M-2M-2M----------9--8--7-[7]~-----|

                                              ^  v
E|----------------------------------------------------|
B|----------------------------------------------------|
G|--------------------------------------7-----9--9----|
D|--2-----------------------------------x-----x--x----|
A|--2-----2M-2M-2M-2M-2M-2M-2M-2M-2M-2M-5-----7--7----|
D|--2-----2M-2M-2M-2M-2M-2M-2M-2M-2M-2M---------------|
                                                                                  
E|----------------------------------------------------|
B|----------------------------------------------------|
G|----------------------------------------------------|
D|--2-------------------------------------------------|
A|--2-----2M-2M-2M-2M-2M-2M-2M-2M-2M-2M-2M-2M-2M-2M---|
D|--2-----2M-2M-2M-2M-2M-2M-2M-2M-2M-2M-2M-2M-2M-2M---|

                                              ^  v
E|----------------------------------------------------|
B|----------------------------------------------------|
G|--------------------------------------7-----9--9----|
D|--2-----------------------------------x-----x--x----|
A|--2-----2M-2M-2M-2M-2M-2M-2M-2M-2M-2M-5-----7--7----|
D|--2-----2M-2M-2M-2M-2M-2M-2M-2M-2M-2M---------------|

E|--------------------------------------------------------------------------------|
B|--------------------------------------------------------------------------------|
G|--------------------------------------------------------------------------------|
D|--2-----------------------------------------------------------------------------|
A|--2-----------------2M-------2M-------2M-------2M-------2M-------2M-------2M----|
D|--2-----------------2M-------2M-------2M-------2M-------2M-------2M-------2M----|

E|--------------------------------------------------------------------|
B|--------------------------------------------------------------------|
G|--------------------------------------------------------------------|
D|--------------------------------------------------------------------|
A|---2M-------2M-------2M-------2M----2M----2M----xg------------------|
D|---2M-------2M-------2M-------2M----2M----2M----xg------------------|
                             
E|-------|----------|
B|-------|----------|
G|-------|----------|
D|--6----|--5--4----|(x2)
A|--6----|--5--4----|
D|--6----|--5--4----|

E|--------------------------------------------------------------------------------|
B|--------------------------------------------------------------------------------|
G|--------------------------------------------------------------------------------|
D|--------------------2M----------------2M-------------------------2M-------------|
A|--------------------2M----------------2M-------------------------2M-------------|
D|--------------------2M----------------2M-------------------------2M-------------|

E|--------------------------------------------------------------------|
B|--------------------------------------------------------------------|
G|--------------------------------------------------------------------|
D|---2M----------------2M-------------------------xg------------------| (x3)
A|---2M----------------2M-------2M----2M----2M----xg------------------|
D|---2M----------------2M-------2M----2M----2M----xg------------------|

E|----------------------------------------------------|
B|----------------------------------------------------|
G|----------------------------------------------------|
D|--------2M----2M-------2M----2M----2M-2-------------|
A|--------2M----2M-------2M----2M----2M-2M------------|
D|--------2M----2M-------2M----2M----2M-2M------------|

[Bridge]
E|--------------------------------------------------------------------------------|
B|--------------------------------------------------------------------------------|
G|--------------------------------------------------------------------------------|
D|--------------------------------------------------------------------------------|
A|--2g-7g-7g-7g-7g-7g-7g-7g-7g-7g-7g-7g-7g-7g-7g-7g-2g-7g-7g-7g-7g-7g-7g-7g-7g-7g-|
D|--------------------------------------------------------------------------------|
                                         
E|--------------------|
B|--------------------|
G|--------------------|
D|--------------------|(x4)
A|7g-7g-7g-7g-7g-7g---|
D|--------------------|

E|--------------------------------------------------------------------------------|
B|--------------------------------------------------------------------------------|
G|--------------------------------------------------------------------------------|
D|--------------------------------------------------------------------------------|
A|--7g-7g-7g-7g-7g-7g-7g-7g-7g-7g-7g-7g-7g-7g-7g-7g-6g-6g-6g-6g-6g-6g-6g-6g-5g-5g-|
D|--------------------------------------------------------------------------------|

E|--------------------|
B|--------------------|
G|--------------------|
D|--------------------|
A|5g-5g-5g-5g-5g-5g---|
D|--------------------|

E|--------------------------------------------------------------------------------|
B|--------------------------------------------------------------------------------|
G|--------------------------------------------------------------------------------|
D|--------------------------------------------------------------------------------|
A|--------------------------------------------------------------------------------|
D|--2g-2g-2g-2g-2g-2g-2g-2g-2g-2g-2g-2g-2g-2g-2g-2g-2g-2g-2g-2g-2g-2g-2g-2g-2g-2g-|

E|--------------------|
B|--------------------|
G|--------------------|
D|--------------------|
A|--------------------|
D|2g-2g-2g-2g-2g-2g---|

E|--------------------------------------------------------------------------------|
B|--------------------------------------------------------------------------------|
G|--------------------------------------------------------------------------------|
D|--------------------------------------------------------------------------------|
A|--7g-7g-7g-7g-7g-7g-7g-7g-7g-7g-7g-7g-7g-7g-7g-7g-6g-6g-6g-6g-6g-6g-6g-6g-9g-9g-|
D|--------------------------------------------------------------------------------|

E|--------------------|
B|--------------------|
G|--------------------|
D|--------------------|
A|9g-9g-9g-9g-9g-9g---|
D|--------------------|

E|--------------------------------------------------------------------------------|
B|--------------------------------------------------------------------------------|
G|--------------------------------------------------------------------------------|
D|--------------------------------------------------------------------------------|
A|--7g-7g-7g-7g-7g-7g-7g-7g-7g-7g-7g-7g-7g-7g-7g-7g-7g-7g-7g-7g-7g-7g-7g-7g-7g-7g-|
D|--------------------------------------------------------------------------------|

E|--------------------|
B|--------------------|
G|--------------------|
D|--------------------|
A|7g-7g-7g-7g-7g-7g---|
D|--------------------|

(Guitar 2)
E|--------------------------------------------------------------------------------|
B|--------------------------------------------------------------------------------|
G|--------------------------------------------------------------------------------|
D|--14g14g14g14g14g14g14g14g14g14g14g14g14g14g14g14g13g13g13g13g13g13g13g13g12g12g|
A|--------------------------------------------------------------------------------|
D|--------------------------------------------------------------------------------|

E|---------------------|
B|---------------------|
G|---------------------|
D|-12g12g12g12g12g12g--|
A|---------------------|
D|---------------------|

E|--------------------------------------------------------------------------------|
B|--------------------------------------------------------------------------------|
G|--------------------------------------------------------------------------------|
D|--2g-2g-2g-2g-2g-2g-2g-2g-2g-2g-2g-2g-2g-2g-2g-2g-2g-2g-2g-2g-2g-2g-2g-2g-2g-2g-|
A|--------------------------------------------------------------------------------|
D|--------------------------------------------------------------------------------|

E|--------------------|
B|--------------------|
G|--------------------|
D|2g-2g-2g-2g-2g-2g---|(x2)
A|--------------------|
D|--------------------|

[Verse]
(Guitar 1)
E|----------------------------------------------------|
B|----------------------------------------------------|
G|--4-----4--------4-----4--4-----4--------4-----4----|
D|--2-----2--------2-----2--2-----2--------2-----2----|(x8)
A|--2-----2--------2-----2--2-----2--------2-----2----|
D|--2-----2--------2-----2--2-----2--------2-----2----|

(Guitar 2)
E|----------------|-------|
B|----------------|-------|
G|--9-----8--7----|-------|
D|----------------|--2----|(x2)
A|--7-----6--5----|-------|
D|----------------|--2----|

E|----------------|-------|----------------|-------|
B|----------------|-------|----------------|-------|
G|--9-----8--11---|-------|--9-----8--7----|-------|
D|----------------|--2----|----------------|--2----|
A|--7-----6--9----|-------|--7-----6--5----|-------|
D|----------------|--2----|----------------|--2----|

(Guitar 1)                  ^     ^     ^  v  ^  ^
E|----------------------------------------------------|
B|----------------------------------------------------|
G|--4-----4--------4-----4--4-----4-----7s-9--9--9----|
D|--2-----2--------2-----2--2-----2-----xs-x--x--x----|(x8)
A|--2-----2--------2-----2--2-----2-----5s-7--7--7----|
D|--2-----2--------2-----2--2-----2-------------------|

(Guitar 2)
E|----------------|-------|
B|----------------|-------|
G|--9-----8--7----|-------|
D|----------------|--2----|(x2)
A|--7-----6--5----|-------|
D|----------------|--2----|

[Refrain]
(Guitar 1)
E|----------------------------------------------------|
B|----------------------------------------------------|
G|--------------------------9--7-----7-----9----------|
D|--2-----------------------x--x-----x-----x----------|
A|--2-----2M-2M-2M-2M-2M-2M-7--5-----5-----7-----0----|
D|--2-----2M-2M-2M-2M-2M-2M----------------------0----|

(Guitar 2)
E|----------------------------------------------------|
B|----------------------------------------------------|
G|----------------------------------------------------|
D|--2-----------------------7--5-----5-----7----------|
A|--2-----2M-2M-2M-2M-2M-2M-7--5--x--5-----7-----0----|
D|--2-----2M-2M-2M-2M-2M-2M-7--5--x--5-----7-----0----|
                                              
E|----------------------------------------------------|
B|----------------------------------------------------|
G|----------------------------------------------------|
D|--2-------------------------------------------------|
A|--2-----2M-2M-2M-2M-2M-2M-7--6--5----------[7]~-----|
D|--2-----2M-2M-2M-2M-2M-2M----------9--8--7----------|

(Guitar 1)
E|----------------------------------------------------|
B|----------------------------------------------------|
G|--------------------------9--7-----7-----9----------|
D|--2-----------------------x--x-----x-----x----------|
A|--2-----2M-2M-2M-2M-2M-2M-7--5-----5-----7-----0----|
D|--2-----2M-2M-2M-2M-2M-2M----------------------0----|

(Guitar 2)
E|----------------------------------------------------|
B|----------------------------------------------------|
G|----------------------------------------------------|
D|--2-----------------------7--5-----5-----7----------|
A|--2-----2M-2M-2M-2M-2M-2M-7--5--x--5-----7-----0----|
D|--2-----2M-2M-2M-2M-2M-2M-7--5--x--5-----7-----0----|
                                              
E|----------------------------------------------------|
B|----------------------------------------------------|
G|----------------------------------------------------|
D|--2-------------------------------------------------|
A|--2-----2M-2M-2M-2M-2M-2M-7--6--5-------------------|
D|--2-----2M-2M-2M-2M-2M-2M----------9--8--7-[7]~-----|
                                             
                                              ^  v
E|----------------------------------------------------|
B|----------------------------------------------------|
G|--------------------------------------7-----9--9----|
D|--2-----------------------------------x-----x--x----|
A|--2-----2M-2M-2M-2M-2M-2M-2M-2M-2M-2M-5-----7--7----|
D|--2-----2M-2M-2M-2M-2M-2M-2M-2M-2M-2M---------------|
                                                                
E|----------------------------------------------------|
B|----------------------------------------------------|
G|----------------------------------------------------|
D|--2-------------------------------------------------|
A|--2-----2M-2M-2M-2M-2M-2M-2M-2M-2M-2M-2M-2M-2M-2M---|
D|--2-----2M-2M-2M-2M-2M-2M-2M-2M-2M-2M-2M-2M-2M-2M---|

                                              ^  v
E|----------------------------------------------------|
B|----------------------------------------------------|
G|--------------------------------------7-----9--9----|
D|--2-----------------------------------x-----x--x----|
A|--2-----2M-2M-2M-2M-2M-2M-2M-2M-2M-2M-5-----7--7----|
D|--2-----2M-2M-2M-2M-2M-2M-2M-2M-2M-2M---------------|

E|--------------------------------------------------------------------------------|
B|--------------------------------------------------------------------------------|
G|--------------------------------------------------------------------------------|
D|--2-----------------------------------------------------------------------------|
A|--2-----------------2M-------2M-------2M-------2M-------2M-------2M-------2M----|
D|--2-----------------2M-------2M-------2M-------2M-------2M-------2M-------2M----|

E|--------------------------------------------------------------------|-------|
B|--------------------------------------------------------------------|-------|
G|--------------------------------------------------------------------|-------|
D|--------------------------------------------------------------------|-------|
A|---2M-------2M-------2M-------2M----2M----2M----xg------------------|-------|
D|---2M-------2M-------2M-------2M----2M----2M----xg------------------|-------|


************************************

| L - tied note
| x - dead note
| [n]-artificial harmonic
| ~ - vibrato
| g - ghost note
| M - palm mute
| v - brush up
| ^ - brush down

************************************

            
            
Suggest correction
Creating personal tab
Creating personal tab
You can edit any tab online and save it as your Personal.

You can edit, replace or remove any tab part or add personal notes – all changes will be seen only by you.

Personal tabs can be accessed anytime from any device, even offline.
Learn more »
Give kudos to tab author, rate the tab!
1 2 3 4 5
comments
print report bad tab
guest
You may want to rate the tab now too:
select rating
Wanna post a correction for this tab? Suggest correction