Oops, an error
Loading. Please wait.

Two Weeks tab

by Mute
822 views 1 this week
no commentswrite comment
1 2 3 4 5
3 more votes to show rating
add to favorites
×
Save as Personal and add changes to this tab that will be seen only by you. Learn more ›
×
You can save this tab as Personal to edit and correct it or add notes. All changes will be seen only by you. Learn more »
launch autoscroll
font size
0
reset
how to read this tab
guitar tuner
edit
Autoscroll
slow
fast
+/-
esc
set tempo
stop
Author
Difficulty
Two Weeks by Mute
Album: Sleepers
www.mutepunkrock.net
left channel

E||-------------------------------|------------------------------------------|
B||-------------------------------|------------------------------------------|
G||*--5-5--5-5-5--5-7-7--7-7-7--7-|--8--8---8--8--8---8--7--7---7--7--7---7--|
D||*--6-6--6-6-6--6-6-6--6-6-6--6-|--10-10--10-10-10--10-10-10--10-10-10--10-|
A||-------------------------------|------------------------------------------|
E||-------------------------------|------------------------------------------|
                                                              X2
------------------------------|-------------------------------||
------------------------------|----------------8-8--8-8-8--8--||
--5-5--5-5-5--5-3-3--3-3-3--3-|--3-3--3-3-3--3---------------*||
--6-6--6-6-6--6-6-6--6-6-6--6-|--5-5--5-5-5--5-5-5--5-5-5--5-*||
------------------------------|-------------------------------||
------------------------------|-------------------------------||

--------------------|--------------------|--------------------|
--------------------|--------------------|--------------------|
--------------------|--------------------|--------------------|
--6--------6--------|--------------------|--------------------|
--6--------6--------|--3--------5--------|--6--------5--------|
--4--------4--------|--------------------|--------------------|

--------------------|------------------------------|
--------------------|------------------------------|
--------------------|--3-3--3-5-5--5-8--8--12--12--|
--------------------|------------------------------|
--3--------1--------|--1-1--1-3-3--3-6--6--10--10--|
--------------------|------------------------------|

------------------------------------------|------------------------------|
------------------------------------------|------------------------------|
--13-13--13-13-13--13-13-13--13-13-13--13-|------------------------------|
------------------------------------------|--6-6--6-6-6--6-6-6--6-6-6--6-|
--11-11--11-11-11--11-11-11--11-11-11--11-|--6-6--6-6-6--6-6-6--6-6-6--6-|
------------------------------------------|--4-4--4-4-4--4-4-4--4-4-4--4-|

                                                      pm.......
------------------------------|--------------------------------|
------------------------------|--------------------------------|
--8-8--8-8-8--8-8-8--8-8-8--8-|--------------------------------|
--8-8--8-8-8--8-8-8--8-8-8--8-|--8-8--8-8-8--8-8-8--8----------|
--6-6--6-6-6--6-6-6--6-6-6--6-|--8-8--8-8-8--8-8-8--8-8--6--5--|
------------------------------|--6-6--6-6-6--6-6-6--6-6--4--3--|

------------------------------|------------------------------|
------------------------------|------------------------------|
------------------------------|----------------5-5--5-8-8--8-|
--3-3--3-3-3--3-3-3--3-3-3--3-|--6-6--6-6-6--6---------------|
--3-3--3-3-3--3-3-3--3-3-3--3-|--6-6--6-6-6--6-3-3--3-6-6--6-|
--1-1--1-1-1--1-1-1--1-1-1--1-|--4-4--4-4-4--4---------------|


                                pm.   pm.
--------------------|-------------------------||-------------------------------|
--------------------|-------------------------||-------------------------------|
--------------------|-------------------------||*--8-8--8-8-8--8---------------|
--------------------|-------------------------||*--8-8--8-8-8--8-8-8--8-8-8--8-|
--5--------5--------|--5------------6------5--||---6-6--6-6-6--6-8-8--8-8-8--8-|
--6--------6--------|--6--------8-8-8--6-6-6--||-----------------6-6--6-6-6--6-|

------------------------------|------------------------------|
--4-4--4-4-4--4---------------|------------------------------|
--5-5--5-5-5--5-3-3--3-3-3--3-|----------------8-8--8-8-8--8-|
--5-5--5-5-5--5-5-5--5-5-5--5-|--6-6--6-6-6--6-8-8--8-8-8--8-|
--3-3--3-3-3--3-5-5--5-5-5--5-|--6-6--6-6-6--6-6-6--6-6-6--6-|
----------------3-3--3-3-3--3-|--4-4--4-4-4--4---------------|


    pm...............    pm.    X2
---------------------------------||------------------------------|
---------------------------------||--9-9--9-9-9--9-9-9--9-9-9--9-|
--7-----------------------------*||--8-8--8-8-8--8-7-7--7-7-7--7-|
--8-8-8-8-8-8-8-8---------------*||--6-6--6-6-6--6-6-6--6-6-6--6-|
----------------------6------5---||------------------------------|
------------------8-8-8--6-6-6---||------------------------------|

------------------------------------------|------------------------------------|
--8--8---8--8--8---8--8--8---8--8--8---8--|--9-9--9-9-9--9-11-11--11-11-11--11-|
--8--8---8--8--8---8--7--7---7--7--7---7--|--8-8--8-8-8--8---------------------|
--10-10--10-10-10--10-10-10--10-10-10--10-|--6-6--6-6-6--6-8--8---8--8--8---8--|
------------------------------------------|------------------------------------|
------------------------------------------|------------------------------------|


                                         pm.............
------------------------------------|-----------------------------|
--11-11--11-11-11--11-8-8--8-8-8--8-|-----------------------------|
------------------------------------|-----------------------------|
--8--8---8--8--8---8--5-5--5-5-5--5-|-----------------------------|
------------------------------------|--3-----------------5--------|
------------------------------------|--4-4-4-4-4-4-4-4-4-4--------|


   pm..............               pm.............
-----------------------------|-----------------------------|
-----------------------------|-----------------------------|
-----------------------------|-----------------------------|
-----------------------------|-----------------------------|
--6-----------------5--------|--3-----------------1--------|
--8-8-8-8-8-8-8-8-8-8--------|--4-4-4-4-4-4-4-4-4-4--------|

---------------------------------|------------------------------------------|
---------------------------------|------------------------------------------|
--3-3--3-5-5--5-8-8-8--12-12-12--|--13-13--13-13-13--13-13-13--13-13-13--13-|
---------------------------------|------------------------------------------|
--1-1--1-3-3--3-6-6-6--10-10-10--|--11-11--11-11-11--11-11-11--11-11-11--11-|
---------------------------------|------------------------------------------|


 pm....................
------------------------|------------------------------|
------------------------|------------------------------|
------------------------|--8-8--8-8-8--8-8-8--8-8-8--8-|
------------------------|--8-8--8-8-8--8-8-8--8-8-8--8-|
--6-6-------6-6-6----6--|--6-6--6-6-6--6-6-6--6-6-6--6-|
--4-4-------4-4-4----4--|------------------------------|


                       pm.....
--------------------------------|------------------------------|
--------------------------------|------------------------------|
--------------------------------|------------------------------|
--8-8--8-8-8--8-8-8--8----------|--3-3--3-3-3--3-3-3--3-3-3--3-|
--8-8--8-8-8--8-8-8--8-8--6--5--|--3-3--3-3-3--3-3-3--3-3-3--3-|
--6-6--6-6-6--6-6-6--6-6--4--3--|--1-1--1-1-1--1-1-1--1-1-1--1-|


                                                              pm.    pm.
------------------------------|--------------------|-------------------------|
------------------------------|--------------------|-------------------------|
----------------5-5--5-8-8--8-|--------------------|-------------------------|
--6-6--6-6-6--6---------------|--------------------|-------------------------|
--6-6--6-6-6--6-3-3--3-6-6--6-|--5--------5--------|--5------------6------5--|
--4-4--4-4-4--4---------------|--6--------6--------|--6--------8-8-8--6-6-6--|

|-------------------------------|------------------------------|
|-------------------------------|--4-4--4-4-4--4---------------|
|*--8-8--8-8-8--8---------------|--5-5--5-5-5--5-3-3--3-3-3--3-|
|*--8-8--8-8-8--8-8-8--8-8-8--8-|--5-5--5-5-5--5-5-5--5-5-5--5-|
|---6-6--6-6-6--6-8-8--8-8-8--8-|--3-3--3-3-3--3-5-5--5-5-5--5-|
|-----------------6-6--6-6-6--6-|----------------3-3--3-3-3--3-|


                                   pm...............    pm.
------------------------------|---------------------------------||
------------------------------|---------------------------------||
----------------8-8--8-8-8--8-|--7-----------------------------*||
--6-6--6-6-6--6-8-8--8-8-8--8-|--8-8-8-8-8-8-8-8---------------*||
--6-6--6-6-6--6-6-6--6-6-6--6-|----------------------6------5---||
--4-4--4-4-4--4---------------|------------------8-8-8--6-6-6---||


                                                 pm.........................
---------------------|---------------------|---------------------------------|
---------------------|---------------------|---------------------------------|
--8------------8-----|--8------------8-----|---------------------------------|
--8------------8--8--|--8------------8-8---|--8--8-8-8-8-8-8-6-6-6-6-5-5-5-5-|
--6------------6--8--|--6------------6-8---|--6--6-6-6-6-6-6-6-6-6-6-6-6-6-6-|
------------------6--|-----------------6---|---------------------------------|


     pm.........................        pm...............................
---------------------------------|----------------------------------------|
---------------------------------|----------------------------------------|
---------------------------------|----------------------------------------|
--6--6-6-6-6-6-6-5-5-5-5-3-3-3-3-|----------------------------------------|
--4--4-4-4-4-4-4-4-4-4-4-4-4-4-4-|--11--11-11-11-11-11-11-9-9-9-9-8-8-8-8-|
---------------------------------|--7---7--7--7--7--7--7--7-7-7-7-7-7-7-7-|

------------------------------|-------------------------|
------------------------------|-------------------------|
--8--8--8-8-8-8--8-8--8-8-8-8-|-------------------------|
--6--6--6-6-6-6--6-6--6-6-6-6-|----8----8--6--6-5--5-5--|
--6--6--6-6-6-6--6-6--6-6-6-6-|----6----6--6--6-6--6-6--|
------------------------------|-------------------------|

---------------------------|----------------------------|
---------------------------|----------------------------|
---------------------------|----------------------------|
----6--6--6-5--5-5--3-3-3--|----------------------------|
----4--4--4-4--4-4--4-4-4--|----11----11--9--9-8--8-8-8-|
---------------------------|----7-----7---7--7-7--7-7-7-|

-------------------------------|----------------------------------|
-------------------------------|-----9--9----9--9----9--9----9--9-|
--8-8--8-8-8--8-8-8--8---------|--10------10------10------10------|
--6-6--6-6-6--6-6-6--6-8-6-5---|----------------------------------|
--6-6--6-6-6--6-6-6--6-------8-|----------------------------------|
-------------------------------|----------------------------------|

------------------------------|------------------------------|
------------------------------|----6--6---6--6---8--8---9--9-|
----5--5---5--5---5--5---5--5-|--8------8------8------8------|
--6------6------6------6------|------------------------------|
------------------------------|------------------------------|
------------------------------|------------------------------|


                        pm.........................
----------------------|-----------------------------|
--11-11--11-11-11--11-|-----------------------------|
--10-10--10-10-10--10-|-----------------------------|
--8--8---8--8--8---8--|-----------------------------|
----------------------|-----------------------------|
----------------------|--4--3--1--6--4--3--8--6--4--|

------------------------------|------------------------------|
------------------------------|------------------------------|
------------------------------|----------------5-5--5-8-8--8-|
--3-3--3-3-3--3-3-3--3-3-3--3-|--6-6--6-6-6--6---------------|
--3-3--3-3-3--3-3-3--3-3-3--3-|--6-6--6-6-6--6-3-3--3-6-6--6-|
--1-1--1-1-1--1-1-1--1-1-1--1-|--4-4--4-4-4--4---------------|


                                                     pm.    pm.
------------------------------|------------------------------------|
------------------------------|------------------------------------|
----------------7-7--7-7-7--7-|--10-10--10-10-10--10---------------|
------------------------------|------------------------------------|
--5-5--5-5-5--5-5-5--5-5-5--5-|--8--8---8--8--8---8------6------5--|
--6-6--6-6-6--6---------------|----------------------8-8-8--6-6-6--|

|-------------------------------|------------------------------|
|-------------------------------|--4-4--4-4-4--4---------------|
|*--8-8--8-8-8--8---------------|--5-5--5-5-5--5-3-3--3-3-3--3-|
|*--8-8--8-8-8--8-8-8--8-8-8--8-|--5-5--5-5-5--5-5-5--5-5-5--5-|
|---6-6--6-6-6--6-8-8--8-8-8--8-|--3-3--3-3-3--3-5-5--5-5-5--5-|
|-----------------6-6--6-6-6--6-|----------------3-3--3-3-3--3-|


                                   pm...............    pm.     X2
------------------------------|---------------------------------||
------------------------------|---------------------------------||
----------------8-8--8-8-8--8-|--7-----------------------------*||
--6-6--6-6-6--6-8-8--8-8-8--8-|--8-8-8-8-8-8-8-8---------------*||
--6-6--6-6-6--6-6-6--6-6-6--6-|----------------------6------5---||
--4-4--4-4-4--4---------------|------------------8-8-8--6-6-6---||

--23t15h18h15h18h15-23t15-23t15h18h15h18h15-23t15-22t15h18h15h18h15-22t15-22t15h-|
---------------------------------------------------------------------------------|
---------------------------------------------------------------------------------|
---------------------------------------------------------------------------------|
---------------------------------------------------------------------------------|
---------------------------------------------------------------------------------|

--20t11h15h11h15h11-20t11-20t11h15h11h15h11-20t15-18t10h13h10h13h10-18t10-18t10h-|
---------------------------------------------------------------------------------|
---------------------------------------------------------------------------------|
---------------------------------------------------------------------------------|
---------------------------------------------------------------------------------|
---------------------------------------------------------------------------------|

--16t8h11h8h11h8-16t8-16t8h11h8h11h8-16t8-15t6h10h6h10h6-15t6-15t6h10h6h10h6-15--|t
---------------------------------------------------------------------------------|
---------------------------------------------------------------------------------|
---------------------------------------------------------------------------------|
---------------------------------------------------------------------------------|
---------------------------------------------------------------------------------|

--10-13-10----10----------------------------|
-----------11----11----11-------------------|
--------------------10----10----10----------|
-----------------------------12----12-------|
--------------------------------------13----|
--------------------------------------------|

--------15h18-23t18h15-------------10h13-18t13h10-------|
-----16----------------16-------11----------------11----|
--15-------------------------10-------------------------|
--------------------------------------------------------|
--------------------------------------------------------|
--------------------------------------------------------|

--------11h15-18t15h11-----------6h10-13t10h6------|
-----13----------------13------8--------------8----|
--12-------------------------7---------------------|
---------------------------------------------------|
---------------------------------------------------|
---------------------------------------------------|

------8h11-16t11h8----------3h6-11t6h3------|---------------------------|
----9--------------9------4------------4----|---------------------------|
--8---------------------3-------------------|-------------------5--7-8--|
--------------------------------------------|----------5--6--8----------|
--------------------------------------------|--5-6--8-------------------|
--------------------------------------------|---------------------------|

-------------------6--8-10--|--11----------------||
----------6--8--9-----------|--9-----------------||
--5-7--8--------------------|--8-----------------||
----------------------------|--------------------||
----------------------------|--------------------||
----------------------------|--------------------||

Right channel

E||-------------------------------|------------------------------|
B||-------------------------------|--4-4--4-4-4--4-4-4--4-4-4--4-|
G||*------------------------------|--5-5--5-5-5--5-5-5--5-5-5--5-|
D||*--6-6--6-6-6--6-6-6--6-6-6--6-|--5-5--5-5-5--5-5-5--5-5-5--5-|
A||---6-6--6-6-6--6-6-6--6-6-6--6-|--3-3--3-3-3--3-3-3--3-3-3--3-|
E||---4-4--4-4-4--4-4-4--4-4-4--4-|------------------------------|

------------------------------|-------------------------------||
------------------------------|-------------------------------||
------------------------------|----------------8-8--8-8-8--8-*||
--6-6--6-6-6--6-6-6--6-6-6--6-|--5-5--5-5-5--5---------------*||
--6-6--6-6-6--6-6-6--6-6-6--6-|--5-5--5-5-5--5-6-6--6-6-6--6--||
--4-4--4-4-4--4-4-4--4-4-4--4-|--3-3--3-3-3--3----------------||

--------------------|---------------------|---------------------|
--------------------|---------------------|---------------------|
--------------------|---------------------|---------------------|
--6--------6--------|-----------6----5----|----------------5----|
--6--------6--------|---------------------|--6--------5---------|
--4--------4--------|--4------------------|---------------------|

--------------------|----------------------------|
--------------------|----------------------------|
--------------------|----------------5--5--8--8--|
--------------------|--5-5--5-6-6--6-------------|
--------------------|----------------3--3--6--6--|
--4--------4--------|--3-3--3-4-4--4-------------|

------------------------------------------|------------------------------|
------------------------------------------|------------------------------|
--10-10--10-10-10--10-10-10--10-10-10--10-|------------------------------|
------------------------------------------|--6-6--6-6-6--6-6-6--6-6-6--6-|
--8--8---8--8--8---8--8--8---8--8--8---8--|--6-6--6-6-6--6-6-6--6-6-6--6-|
------------------------------------------|--4-4--4-4-4--4-4-4--4-4-4--4-|

------------------------------|--------------------------------|
------------------------------|--------------------------------|
--8-8--8-8-8--8-8-8--8-8-8--8-|--------------------------------|
--8-8--8-8-8--8-8-8--8-8-8--8-|--8-8--8-8-8--8-8-8--8----------|
--6-6--6-6-6--6-6-6--6-6-6--6-|--8-8--8-8-8--8-8-8--8-8--6--5--|
------------------------------|--6-6--6-6-6--6-6-6--6-6--4--3--|

------------------------------|------------------------------|
------------------------------|------------------------------|
------------------------------|------------------------------|
--3-3--3-3-3--3-3-3--3-3-3--3-|--6-6--6-6-6--6-6-6--6-6-6--6-|
--3-3--3-3-3--3-3-3--3-3-3--3-|--6-6--6-6-6--6-6-6--6-6-6--6-|
--1-1--1-1-1--1-1-1--1-1-1--1-|--4-4--4-4-4--4-4-4--4-4-4--4-|

--------------------|-------------------------||-------------------------------|
--------------------|-------------------------||-------------------------------|
--------------------|---------------8------7--||*--8-8--8-8-8--8---------------|
--------------------|-------------------------||*--8-8--8-8-8--8-8-8--8-8-8--8-|
--5--------5--------|--5--------6-6-6--5-5-5--||---6-6--6-6-6--6-8-8--8-8-8--8-|
--6--------6--------|--6----------------------||-----------------6-6--6-6-6--6-|

------------------------------|------------------------------|
--4-4--4-4-4--4---------------|------------------------------|
--5-5--5-5-5--5-3-3--3-3-3--3-|----------------8-8--8-8-8--8-|
--5-5--5-5-5--5-5-5--5-5-5--5-|--6-6--6-6-6--6-8-8--8-8-8--8-|
--3-3--3-3-3--3-5-5--5-5-5--5-|--6-6--6-6-6--6-6-6--6-6-6--6-|
----------------3-3--3-3-3--3-|--4-4--4-4-4--4---------------|

---------------------------------||------------------------------|
---------------------------------||------------------------------|
--------------------------------*||------------------------------|
--------------------------------*||--6-6--6-6-6--6-6-6--6-6-6--6-|
--5-------------------6------5---||--6-6--6-6-6--6-6-6--6-6-6--6-|
--6-6-6-6-6-6-6-6-8-8-8--6-6-6---||--4-4--4-4-4--4-4-4--4-4-4--4-|

------------------------------|------------------------------------|
--4-4--4-4-4--4-4-4--4-4-4--4-|------------------------------------|
--5-5--5-5-5--5-5-5--5-5-5--5-|----------------13-13--13-13-13--13-|
--5-5--5-5-5--5-5-5--5-5-5--5-|--6-6--6-6-6--6---------------------|
--3-3--3-3-3--3-3-3--3-3-3--3-|--6-6--6-6-6--6-11-11--11-11-11--11-|
------------------------------|--4-4--4-4-4--4---------------------|

------------------------------------|-----------------------------|
------------------------------------|-----------------------------|
--12-12--12-12-12--12-8-8--8-8-8--8-|-----------------------------|
------------------------------------|-----------------------------|
--10-10--10-10-10--10-6-6--6-6-6--6-|--3-----------------5--------|
------------------------------------|--4-4-4-4-4-4-4-4-4-4--------|

-----------------------------|-----------------------------|
-----------------------------|-----------------------------|
-----------------------------|-----------------------------|
-----------------------------|-----------------------------|
--6-----------------5--------|--3-----------------1--------|
--8-8-8-8-8-8-8-8-8-8--------|--4-4-4-4-4-4-4-4-4-4--------|

------------------------------|------------------------------------------|
------------------------------|------------------------------------------|
----------------5-5-5--8-8-8--|--10-10--10-10-10--10-10-10--10-10-10--10-|
--5-5--5-6-6--6---------------|------------------------------------------|
----------------3-3-3--6-6-6--|--8--8---8--8--8---8--8--8---8--8--8---8--|
--3-3--3-4-4--4---------------|------------------------------------------|

------------------------|------------------------------|
------------------------|------------------------------|
------------------------|--8-8--8-8-8--8-8-8--8-8-8--8-|
------------------------|--8-8--8-8-8--8-8-8--8-8-8--8-|
--6-6-------6-6-6----6--|--6-6--6-6-6--6-6-6--6-6-6--6-|
--4-4-------4-4-4----4--|------------------------------|

--------------------------------|------------------------------|
--------------------------------|------------------------------|
--------------------------------|------------------------------|
--8-8--8-8-8--8-8-8--8----------|--3-3--3-3-3--3-3-3--3-3-3--3-|
--8-8--8-8-8--8-8-8--8-8--6--5--|--3-3--3-3-3--3-3-3--3-3-3--3-|
--6-6--6-6-6--6-6-6--6-6--4--3--|--1-1--1-1-1--1-1-1--1-1-1--1-|

------------------------------|--------------------|-------------------------|
------------------------------|--------------------|-------------------------|
------------------------------|--------------------|---------------8------7--|
--6-6--6-6-6--6-6-6--6-6-6--6-|--------------------|-------------------------|
--6-6--6-6-6--6-6-6--6-6-6--6-|--5--------5--------|--5--------6-6-6--5-5-5--|
--4-4--4-4-4--4-4-4--4-4-4--4-|--6--------6--------|--6----------------------|

|-------------------------------|------------------------------|
|-------------------------------|--4-4--4-4-4--4---------------|
|*--8-8--8-8-8--8---------------|--5-5--5-5-5--5-3-3--3-3-3--3-|
|*--8-8--8-8-8--8-8-8--8-8-8--8-|--5-5--5-5-5--5-5-5--5-5-5--5-|
|---6-6--6-6-6--6-8-8--8-8-8--8-|--3-3--3-3-3--3-5-5--5-5-5--5-|
|-----------------6-6--6-6-6--6-|----------------3-3--3-3-3--3-|

------------------------------|---------------------------------||
------------------------------|---------------------------------||
----------------8-8--8-8-8--8-|--------------------------------*||
--6-6--6-6-6--6-8-8--8-8-8--8-|--------------------------------*||
--6-6--6-6-6--6-6-6--6-6-6--6-|--5-------------------6------5---||
--4-4--4-4-4--4---------------|--6-6-6-6-6-6-6-6-8-8-8--6-6-6---||

---------------------|---------------------|---------------------------------|
---------------------|---------------------|---------------------------------|
--8------------8-----|--8------------8-----|---------------------------------|
--8------------8--8--|--8------------8-8---|--8--8-8-8-8-8-8-6-6-6-6-5-5-5-5-|
--6------------6--8--|--6------------6-8---|--6--6-6-6-6-6-6-6-6-6-6-6-6-6-6-|
------------------6--|-----------------6---|---------------------------------|

---------------------------------|----------------------------------------|
---------------------------------|----------------------------------------|
---------------------------------|----------------------------------------|
--6--6-6-6-6-6-6-5-5-5-5-3-3-3-3-|----------------------------------------|
--4--4-4-4-4-4-4-4-4-4-4-4-4-4-4-|--11--11-11-11-11-11-11-9-9-9-9-8-8-8-8-|
---------------------------------|--7---7--7--7--7--7--7--7-7-7-7-7-7-7-7-|

------------------------------|-------------------------|
------------------------------|-------------------------|
------------------------------|-------------------------|
--6--6--6-6-6-6--6-6--6-6-6-6-|----8----8--6--6-5--5-5--|
--6--6--6-6-6-6--6-6--6-6-6-6-|----6----6--6--6-6--6-6--|
--4--4--4-4-4-4--4-4--4-4-4-4-|-------------------------|

---------------------------|----------------------------|
---------------------------|----------------------------|
---------------------------|----------------------------|
----6--6--6-5--5-5--3-3-3--|----------------------------|
----4--4--4-4--4-4--4-4-4--|----11----11--9--9-8--8-8-8-|
---------------------------|----7-----7---7--7-7--7-7-7-|

------------------------------|-------------------|-------------------|
------------------------------|-------------------|-------------------|
------------------------------|-------------------|-------------------|
--6-6--6-6-6--6-6-6--6-6-6--6-|--3----------------|-------------------|
--6-6--6-6-6--6-6-6--6-6-6--6-|--3----------------|--3----------------|
--4-4--4-4-4--4-4-4--4-4-4--4-|--1----------------|--4----------------|

-------------------|----------------|-----------------------------|
-------------------|----------------|-----------------------------|
--8----------------|----------------|-----------------------------|
--8----------------|--8-8--8-8-8--8-|-----------------------------|
--6----------------|--8-8--8-8-8--8-|-----------------------------|
-------------------|--6-6--6-6-6--6-|--4--3--1--6--4--3--8--6--4--|

------------------------------|------------------------------|
------------------------------|------------------------------|
------------------------------|------------------------------|
--3-3--3-3-3--3-3-3--3-3-3--3-|--6-6--6-6-6--6-6-6--6-6-6--6-|
--3-3--3-3-3--3-3-3--3-3-3--3-|--6-6--6-6-6--6-6-6--6-6-6--6-|
--1-1--1-1-1--1-1-1--1-1-1--1-|--4-4--4-4-4--4-4-4--4-4-4--4-|

--------------------|-------------------------||-------------------------------|
--------------------|-------------------------||-------------------------------|
--------------------|---------------8------7--||*--8-8--8-8-8--8---------------|
--------------------|-------------------------||*--8-8--8-8-8--8-8-8--8-8-8--8-|
--5--------5--------|--5--------6-6-6--5-5-5--||---6-6--6-6-6--6-8-8--8-8-8--8-|
--6--------6--------|--6----------------------||-----------------6-6--6-6-6--6-|

------------------------------|------------------------------|
--4-4--4-4-4--4---------------|------------------------------|
--5-5--5-5-5--5-3-3--3-3-3--3-|----------------8-8--8-8-8--8-|
--5-5--5-5-5--5-5-5--5-5-5--5-|--6-6--6-6-6--6-8-8--8-8-8--8-|
--3-3--3-3-3--3-5-5--5-5-5--5-|--6-6--6-6-6--6-6-6--6-6-6--6-|
----------------3-3--3-3-3--3-|--4-4--4-4-4--4---------------|

---------------------------------||------------------------------|
---------------------------------||------------------------------|
--------------------------------*||--8-8--8-8-8--8---------------|
--------------------------------*||--8-8--8-8-8--8-8-8--8-8-8--8-|
--5-------------------6------5---||--6-6--6-6-6--6-8-8--8-8-8--8-|
--6-6-6-6-6-6-6-6-8-8-8--6-6-6---||----------------6-6--6-6-6--6-|

------------------------------|------------------------------|
--4-4--4-4-4--4---------------|------------------------------|
--5-5--5-5-5--5-3-3--3-3-3--3-|----------------8-8--8-8-8--8-|
--5-5--5-5-5--5-5-5--5-5-5--5-|--6-6--6-6-6--6-8-8--8-8-8--8-|
--3-3--3-3-3--3-5-5--5-5-5--5-|--6-6--6-6-6--6-6-6--6-6-6--6-|
----------------3-3--3-3-3--3-|--4-4--4-4-4--4---------------|

--------------------------------|--------------------|--------------------|
--------------------------------|--------------------|--4-----------------|
--------------------------------|--8--------7--------|--5--------3--------|
--------------------------------|--8--------8--------|--5--------5--------|
--5-------------------6------5--|--6--------5--------|--3--------5--------|
--6-6-6-6-6-6-6-6-8-8-8--6-6-6--|--------------------|-----------3--------|

--------------------|-----------------------------|
--------------------|-----------------------------|
-----------8--------|-----------------------------|
--6--------8--------|--------------------6--8-10--|
--6--------6--------|-------5--6--8--10-----------|
--4-----------------|--6-8------------------------|

------------------------------|-------------------||
---------------------8--9-11--|-------------------||
-----------7--8--10-----------|-------------------||
--6-8--10---------------------|--6----------------||
------------------------------|--6----------------||
------------------------------|--4----------------||

            
            
Suggest correction
Creating personal tab
Creating personal tab
You can edit any tab online and save it as your Personal.

You can edit, replace or remove any tab part or add personal notes – all changes will be seen only by you.

Personal tabs can be accessed anytime from any device, even offline.
Learn more »
Give kudos to tab author, rate the tab!
1 2 3 4 5
comments
print report bad tab
guest
You may want to rate the tab now too:
select rating
Wanna post a correction for this tab? Suggest correction