Oops, an error
Loading. Please wait.

Chaos bass

1,246 views 6 this week
no commentswrite comment
1 2 3 4 5
3 more votes to show rating
add to favorites
×
Save as Personal and add changes to this tab that will be seen only by you. Learn more ›
×
You can save this tab as Personal to edit and correct it or add notes. All changes will be seen only by you. Learn more »
launch autoscroll
font size
0
reset
guitar tuner
edit
Autoscroll
slow
fast
+/-
esc
set tempo
stop
Author
Unregistered
#----------------------------------PLEASE NOTE------------------------------#
# This is the author's own work and represents their interpretation of the  #
# song. You may only use this for private study, scholarship, or research.  #
#---------------------------------------------------------------------------#

-------------------------------------------------------------------------------
                             CHAOS - Mutemath
-------------------------------------------------------------------------------
Tabbed by: Haloquadratum
E-mail: haloquadsmurf@hotmail.com

Tuning: EADG

Hi guys! I wasn't really content with the existing tab for this song, so I decided to 
make a new one.
I used a cover on youtube to figure it out. The cover was made by a great guy, he 
deserves the credits. You can find it here:
http://www.youtube.com/watch?v=cARNL4zzCQs
The time indications are aligned with the album version of the song, not with the 
official music video. You might want to keep that in mind ;)
Enjoy!


Intro 0:18
G|----------------------------------|
D|----------------------------------|
A|-11-11-11-------------------------|
E|----------------------------------|

Verse 0:21
G|--------------11------------------|x12
D|------13----9----9-11-------------|
A|---11----11-----------------------|
E|----------------------9-----------|

Pre-chorus 0:54
G|----------------------------------|
D|---------/13----------------------|
A|----------------------------------|
E|----/7--------14(x16)-------------|

Chorus 0:59
G|---------------------------------------------------|
D|---------------------------------------------------|
A|-12-12-12-12-12-12-12-99999999---------------------|
E|-------------------------------99999999-99999999---|

G|---------------------------------------------------|
D|---------------------------------------------------|
A|-12-12-12-12-12-12-12-99999999-----------/15(x8)---|
E|-------------------------------99999999------------|

G|---------------------------------------------------|
D|---------------------------------------------------|
A|-12-12-12-12-12-12-12-99999999---------------------|
E|-------------------------------99999999-99999999---|

G|----------------------------------|
D|----------------------------------|
A|----------99999999----------------|
E|-55555555----------9~~------------|

Verse 1:20
G|--------------11------------------|x10
D|------13----9----9-11-------------|
A|---11----11-----------------------|
E|----------------------9-----------|

Pre-chorus 1:47
G|----------------------------------|
D|---------/13----------------------|
A|----------------------------------|
E|-----7--------14(x16)-------------|

Chorus 1:52
G|---------------------------------------------------|
D|---------------------------------------------------|
A|-12-12-12-12-12-12-12-99999999---------------------|
E|-------------------------------99999999-99999999---|

G|---------------------------------------------------|
D|---------------------------------------------------|
A|-12-12-12-12-12-12-12-99999999-----------/15(x8)---|
E|-------------------------------99999999------------|

G|---------------------------------------------------|
D|---------------------------------------------------|
A|-12-12-12-12-12-12-12-99999999---------------------|
E|-------------------------------99999999-99999999---|

G|----------------------------------------|
D|----------------------------------------|
A|----------99999999----------------------|
E|-55555555----------99999999-99999999----|

Bridge 2:13
G|---------------------------------------------------|
D|---------------------------------------------------|
A|-12-12-12-12-12-12-12-99999999-----------/15(x8)---|
E|-------------------------------99999999------------|

G|---------------------------------------------------|
D|---------------------------------------------------|
A|-12-12-12-12-12-12-12-99999999---------------------|
E|-------------------------------99-99-99-99-9-9-7~--|

G|----------------------------------|
D|----------------------------------|
A|----------------------------------|
E|-9~-7~-5~-/\-7~-9~-7~-------------|

2:45
G|---------------------------------------------------|
D|---------------------------------------------------|
A|-12-12-12-12-12-12-12-99999999---------------------|
E|-------------------------------99999999-99999999---|

G|---------------------------------------------------|
D|---------------------------------------------------|
A|-12-12-12-12-12-12-12-99999999-----------/15(x8)---|
E|-------------------------------99999999------------|


G|---------------------------------------------------|
D|---------------------------------------------------|
A|-12-12-12-12-12-12-12-99999999---------------------|
E|-------------------------------99999999-99999999---|

G|----------------------------------|
D|----------------------------------|
A|----------99999999----------------|
E|-55555555----------9~~------------|

3:18
G|----------------------------------|
D|----------------------------------|
A|-11-11-11-11---11-11-11-11--------|
E|----------------------------------|


3:28
G|-------------------------------------------|x2
D|-------------------------------------------|
A|-11---11---11-11---11---11---11-11-11-11---|
E|-------------------------------------------|

3:33
G|-------------------------------------------|
D|-------------------------------------------|
A|-------------------------------------------|
E|-9---9---9-9---9---9---9-9-9-9-9-9---------|

G|-------------------------------------------|
D|-------------------------------------------|
A|-------------------------------------------|
E|-9---9-9-9-9---9---9-9-9-9-----------------|

3:39
G|-------------------------------------------|
D|-------------------------------------------|
A|-11---11---11-11---11---11---11-11-11-11---|
E|-------------------------------------------|

G|-------------------------------------------|
D|-------------------------------------------|
A|-11-11-11-11---11-11-11-11---11---11-11/---|
E|-------------------------------------------|


3:44
G|-------------------------------------------|
D|-------------------------------------------|
A|-------------------------------------------|
E|-9---9---9-9---9---9---9-9-9-9-9-9---------|

G|-------------------------------------------|
D|-------------------------------------------|
A|-------------------------------------------|
E|-9---9-9-9-9---9---9-9-9-9-----------------|


3:50
G|-------------------------------------------|
D|-------------------------------------------|
A|-11---11---11-11---11---11---11-11-11-11---|
E|-------------------------------------------|

G|-------------------------------------------|
D|-------------------------------------------|
A|-11-11-11-11-11-11---11---11---11-11-11-11-|
E|-------------------------------------------|


3:55
G|-------------------------------------------|
D|-------------------------------------------|
A|-------------------------------------------|
E|-9---9---9-9---9---9---9-9-9-9-------------|

G|-------------------------------------------|
D|-------------------------------------------|
A|-------------------------------------------|
E|-9-9-9---9-9-9-9---9---9-9-9-9-------------|


Outro 4:00
G|-------------------------------------------|
D|-------------------------------------------|
A|-11~----11~----11~-------------------------|
E|-----9~-----9~-----99999999----------------|

G|---------------------------------------------------|x5
D|---------------------------------------------------|
A|-11-11-11-11-11-11-11-11---------------------------|
E|--------------------------9-9-9-9-9-9-9-9----------|

            
            
Suggest correction
Creating personal tab
Creating personal tab
You can edit any tab online and save it as your Personal.

You can edit, replace or remove any tab part or add personal notes – all changes will be seen only by you.

Personal tabs can be accessed anytime from any device, even offline.
Learn more »
Give kudos to tab author, rate the tab!
1 2 3 4 5
comments
print report bad tab
guest
Wanna post a correction for this tab? Suggest correction