Oops, an error
Loading. Please wait.

Punk Rawk Christmas tab

by MxPx
304 views 1 this week
1 commentread comment
1 2 3 4 5
3 more votes to show rating
add to favorites
×
Save as Personal and add changes to this tab that will be seen only by you. Learn more ›
×
You can save this tab as Personal to edit and correct it or add notes. All changes will be seen only by you. Learn more »
launch autoscroll
font size
0
reset
how to read this tab
guitar tuner
edit
Autoscroll
slow
fast
+/-
esc
set tempo
stop
Author
Difficulty
-------------------------------------------------------------------------------
                             PUNK RAWK CHRISTMAS - MXPX
-------------------------------------------------------------------------------
Tabbed by:RUCUSBOY

Tuning: Standard

CHORUS
     D   A   E                       NA NA NA PART
e|--------------------------------|-------------------------------|
B|--------------------------------|---------------9~-----9~-------|
G|---7-------9-------7------9-----|---7-------9-----9~-----9~-----|
D|---7---7---9---9---7--7---9-----|---7---7---9------9~------9~---|
A|---5---7---7---9---5--7---7-----|---5---7---7-------------------|
E|-------5-------7------5---------|-------5-----------------------|

VERSE
e|--------------------------------------------------|
B|--------------------------------------------------|
G|------7-----9-----7-----9-------------------------|
D|---7--7--9--9--7--7--9--9-------------------------|
A|---7--5--9--7--7--5--9--7-------------------------|
E|---5-----7-----5-----7----------------------------|
   pm-----------------------

other part

When you get no sleep...
e|--------------------------------------------|
B|--------------------------------------------|
G|-------7-------9----------------------------| x2
D|---7---7---9---9----------------------------|
A|---7---5---9---7----------------------------|
E|---5-------7--------------------------------|


Na na na na, na na na na
Na na na na, na na na na

You're on a budget, no denaro in the bank
You're on a budget, no more gas in the tank
But you're gifted with so much to give and so little to live on

Punk rawk Christmas,
tell me where you've been like a junkie in the alley, like a bad girlfriend
I haven't seen you around it's been almost a year
Punk rawk Christmas
come spread your cheer

Na na na na, na na na na

You ride the bus now just to get down town
You ride the bus now living on the west side
You've been kicked around, it's time to kick back,
We're slipping through the cracks

Punk rawk Christmas,
tell me where you've been like a junkie in the alley, like a bad girlfriend
I haven't seen you around it's been almost a year
Punk rawk Christmas
come spread your cheer

Na na na na, na na na na

Come spread your cheer

Na na na na, na na na na

When you get no sleep, day or night, your thoughts just grieve, wrong or right
When there's no more time, the end is near, I hope to see you here

Punk rawk Christmas,
tell me where you've been like a junkie in the alley, like a bad girlfriend
I haven't seen you around it's been almost a year
Punk rawk Christmas
come spread your cheer

Na na na na, na na na na

Come spread your cheer

Na na na na, na na na na

Na na na na, na na na na
Na na na na, na na na na
Na na na na, na na na na
Na na na na, na na na na

Na na na na, na na na na
Na na na na, na na na na

Punk rawk Christmas,
tell me where you've been like a junkie in the alley, like a bad girlfriend
I haven't seen you around it's been almost a year
Punk rawk Christmas
come spread your cheer.

Na na na na, na na na na

Come spread your cheer

            
            
Suggest correction
Creating personal tab
Creating personal tab
You can edit any tab online and save it as your Personal.

You can edit, replace or remove any tab part or add personal notes – all changes will be seen only by you.

Personal tabs can be accessed anytime from any device, even offline.
Learn more »
Give kudos to tab author, rate the tab!
1 2 3 4 5
comments
print report bad tab
1 comment total.
0 reply
rucusboy 304 Dec 20, 2013 09:16 PM

the more i played it i think it is more like this
CHORUS
D A E NA NA NA PART
e|--------------------------------|-------------------------------|
B|--------------------------------|---------------9~-----9~-------|
G|---7-------9-------7------9-----|---7-------9-----9~-----9~-----|
D|---7---7---9---9---7--7---9-----|---7---7---9------9~------9~---|
A|---5---7---7---9---5--7---7-----|---5---7---7-------------------|
E|-------5-------7------5---------|-------5-----------------------|

VERSE
e|--------------------------------------------------|
B|--------------------------------------------------|
G|------7-----9-----7-----9-------------------------|
D|---7--7--9--9--7--7--9--9-------------------------|
A|---7--5--9--7--7--5--9--7-------------------------|
E|---5-----7-----5-----7----------------------------|
pm-----------------------

guest
You may want to rate the tab now too:
select rating
Wanna post a correction for this tab? Suggest correction