Oops, an error
Loading. Please wait.

Becoming Misfortune tab

version 1
version 1

Whole song

Interactive

3,158 views 1 this week
2 commentsread comments
1 2 3 4 5
1 last vote to show rating
add to favorites
×
Save as Personal and add changes to this tab that will be seen only by you. Learn more ›
×
You can save this tab as Personal to edit and correct it or add notes. All changes will be seen only by you. Learn more »
launch autoscroll
font size
0
reset
how to read this tab
guitar tuner
edit
Autoscroll
slow
fast
+/-
esc
set tempo
stop
BECOMING MISFORTUNE
                          As recorded by My Bitter End
                      (From the 2007 Album THE RENOVATION)

Music by My Bitter End
Transcribed by Patsyxcore

Gtr I (Db Ab Db Gb Bb Eb) - 'Right'
Gtr II (Db Ab Db Gb Bb Eb) - 'Left'
Gtr III (Db Ab Db Gb Bb Eb) - 'Center'
Gtr IV (Db Ab Db Gb Bb Eb) - 'Center'

 Intro
  Deathcore Q=208
  N.C.
 4/4
  Gtr I
                 PM|   PM|   PM--|         PM  PM    PM  PM  PM  PM
  W            E E E E E E E E   E E E E E E E E   E E E E E E E E
|----------||------------------|-----------------|-----------------|
|----------||o-----------------|-----------------|-----------------|
|----------||------------------|-----------------|-----------------|
|----------||--1-----1-----1---|---1-1-1-3---3---|-3---5---5---5---|
|----------||o-----------------|-----------------|-----------------|
|----------||----1-1---1-1---1-|-1---------1---1-|---1---1---1---1-|
|
| Gtr II
|                PM|   PM|   PM--|         PM  PM    PM  PM  PM  PM
| W            E E E E E E E E   E E E E E E E E   E E E E E E E E
|----------||------------------|-----------------|-----------------|
|----------||o-----------------|-----------------|-----------------|
|----------||--0-----0-----0---|---0-0-0-2---2---|-2---3---3---3---|
|----------||------------------|-----------------|-----------------|
|----------||o-----------------|-----------------|-----------------|
|----------||----1-1---1-1---1-|-1---------1---1-|---1---1---1---1-|


  N.C.
    PM|   PM|   PM--|         PM  PM    PM  PM  PM  PM
  E E E E E E E E   E E E E E E E E   E E E E E E E E
|-----------------|-----------------|-----------------|
|-----------------|-----------------|-----------------|
|-----------------|-----------------|-----------------|
|-0-----0-----0---|---0-0-0-2---2---|-2---3---3---3---|
|-----------------|-----------------|-----------------|
|---0-0---0-0---0-|-0---------0---0-|---0---0---0---0-|
|
|   PM|   PM|   PM--|         PM  PM    PM  PM  PM  PM
| E E E E E E E E   E E E E E E E E   E E E E E E E E
|-----------------|-----------------|-----------------|
|-----------------|-----------------|-----------------|
|-----------------|-----------------|-----------------|
|-3-----3-----3---|---3-3-3-5---5---|-5---7---7---7---|
|-----------------|-----------------|-----------------|
|---0-0---0-0---0-|-0---------0---0-|---0---0---0---0-|


  N.C.
    PM|   PM|   PM--|         PM  PM    PM  PM  PM  PM
  E E E E E E E E   E E E E E E E E   E E E E E E E E
|-----------------|-----------------|-----------------|
|-----------------|-----------------|-----------------|
|-3-----3-----3---|---3-3-3---------|-----------------|
|-----------------|---------3---3---|-3---5---5---5---|
|-----------------|-----------------|-----------------|
|---1-1---1-1---1-|-1---------1---1-|---1---1---1---1-|
|
|   PM|   PM|   PM--|         PM  PM    PM  PM  PM  PM
| E E E E E E E E   E E E E E E E E   E E E E E E E E
|-----------------|-----------------|-----------------|
|-----------------|-----------------|-----------------|
|-0-----0-----0---|---0-0-0-2---2---|-2---3---3---3---|
|-----------------|-----------------|-----------------|
|-----------------|-----------------|-----------------|
|---1-1---1-1---1-|-1---------1---1-|---1---1---1---1-|


  N.C.
    PM|   PM|   PM--|         PM  PM    PM  PM  PM  PM
  E E E E E E E E   E E E E E E E E   E E E E E E E E
|-----------------|-----------------|-----------------|
|-----------------|-----------------|-----------------|
|-----------------|-----------------|-----------------|
|-0-----0-----0---|---0-0-0-2---2---|-2---3---3---3---|
|-----------------|-----------------|-----------------|
|---0-0---0-0---0-|-0---------0---0-|---0---0---0---0-|
|
|   PM|   PM|   PM--|         PM  PM    PM  PM  PM  PM
| E E E E E E E E   E E E E E E E E   E E E E E E E E
|-----------------|-----------------|-----------------|
|-----------------|-----------------|-----------------|
|-----------------|-----------------|-----------------|
|-3-----3-----3---|---3-3-3-5---5---|-5---7---7---7---|
|-----------------|-----------------|-----------------|
|---0-0---0-0---0-|-0---------0---0-|---0---0---0---0-|


  1.
  N.C.
    PM|   PM|   PM--|         PM  PM    PM  PM  PM  PM
  E E E E E E E E   E E E E E E E E   E E E E E E E E
|-----------------|-----------------|-----------------|
|-----------------|-----------------|-----------------|
|-----------------|-----------------|-----------------|
|-1-----1-----1---|---1-1-1-3---3---|-3---5---5---5---|
|-----------------|-----------------|-----------------|
|---1-1---1-1---1-|-1---------1---1-|---1---1---1---1-|
|
|   PM|   PM|   PM--|         PM  PM    PM  PM  PM  PM
| E E E E E E E E   E E E E E E E E   E E E E E E E E
|-----------------|-----------------|-----------------|
|-----------------|-----------------|-----------------|
|-0-----0-----0---|---0-0-0-2---2---|-2---3---3---3---|
|-----------------|-----------------|-----------------|
|-----------------|-----------------|-----------------|
|---1-1---1-1---1-|-1---------1---1-|---1---1---1---1-|


  N.C.
    PM|   PM|   PM--|         PM  PM    PM  PM  PM  PM
  E E E E E E E E   E E E E E E E E   E E E E E E E E
|-----------------|-----------------|-----------------||
|-----------------|-----------------|-----------------||
|-----------------|-----------------|-----------------||
|-0-----0-----0---|---0-0-0-2---2---|-2---3---3---3---||
|-----------------|-----------------|-----------------||
|---0-0---0-0---0-|-0---------0---0-|---0---0---0---0-||
|
|   PM|   PM|   PM--|         PM  PM    PM  PM  PM  PM
| E E E E E E E E   E E E E E E E E   E E E E E E E E
|-----------------|-----------------|-----------------||
|-----------------|-----------------|-----------------||
|-----------------|-----------------|-----------------||
|-3-----3-----3---|---3-3-3-5---5---|-5---7---7---7---||
|-----------------|-----------------|-----------------||
|---0-0---0-0---0-|-0---------0---0-|---0---0---0---0-||


 "And in the finding..."
  Slower Q=147
  Eb5             F5
  Gtr III
  W                W
|---------------|-------------------------------|
|---------------|-------------------------------|
|---------------|-------------------------------|
|-1-------------|--3----------------------------|
|-1-------------|--3----------------------------|
|-1-------------|--3----------------------------|
|
| Gtr IV
|                              |------6-------|
| Q   Q    H       S  S  Q.    E  E  E  E  E  E
|---------------|-------------------------------|
|---------------|-------------------------------|
|---------------|-------------14h15-14h15-14p12-|
|-8--10--/12----|-15p12h15----------------------|
|---------------|-------------------------------|
|---------------|-------------------------------|


  G5            Bb5
   W             W
|-------------|--------------------------------------|
|-------------|--------------------------------------|
|-------------|--------------------------------------|
|--5----------|--8-----------------------------------|
|--5----------|--8-----------------------------------|
|--5----------|--8-----------------------------------|
|
|                |------6-------|  |------6-------|
|  H     H       E  E  E  E  E  E  E  E  E  E  E  E
|-------------|--------------------------------------|
|-------------|--------------------------------------|
|-------------|-------12h14h15p14-17p14p12-----------|
|-15----------|-14h15----------------------15p14p12--|
|-------19----|--------------------------------------|
|-------------|--------------------------------------|


  Eb5         F5
   W           W
|-----------|--------------------------------|
|-----------|--------------------------------|
|-----------|--------------------------------|
|--1--------|--3-----------------------------|
|--1--------|--3-----------------------------|
|--1--------|--3-----------------------------|
|
|                  |------6-------|  |--3--|
|  W           Q   E  E  E  E  E  E  E  E  E
|-----------|--------------------------------|
|-----------|--------------------------------|
|-----------|-----14h15p14h15-17p15p14h15----|
|-15--------|-19--------------------------15-|
|-----------|--------------------------------|
|-----------|--------------------------------|


  G5            Bb5
   W             W
|-------------|---------------------------------------||
|-------------|--------------------------------------o||
|-------------|---------------------------------------||
|--5----------|--8------------------------------------||
|--5----------|--8-----------------------------------o||
|--5----------|--8------------------------------------||
|
|                |------6-------|  |------6-------|
|  H     H       E  E  E  E  E  E  E  E  E  E  E  E
|-------------|---------------------------------------||
|-------------|--------------------------------------o||
|-------------|-------12h14h15p14-17p14p12------------||
|-15----------|-14h15----------------------15p14p12---||
|-------19----|--------------------------------------o||
|-------------|---------------------------------------||


  2.
  Eb5             F5
  W                W
|---------------|-------------------------------|
|---------------|-------------------------------|
|---------------|-------------------------------|
|-1-------------|--3----------------------------|
|-1-------------|--3----------------------------|
|-1-------------|--3----------------------------|
|
|                              |------6-------|
| Q   Q    H       S  S  Q.    E  E  E  E  E  E
|---------------|-------------------------------|
|---------------|-------------------------------|
|---------------|-------------14h15-14h15-14p12-|
|-8--10--/12----|-15p12h15----------------------|
|---------------|-------------------------------|
|---------------|-------------------------------|


  G5            Eb5
   W             W
|-------------|--------------------------------------|
|-------------|--------------------------------------|
|-------------|--------------------------------------|
|--5----------|--8-----------------------------------|
|--5----------|--8-----------------------------------|
|--5----------|--8-----------------------------------|
|
|                |------6-------|  |------6-------|
|  H     H       E  E  E  E  E  E  E  E  E  E  E  E
|-------------|--------------------------------------|
|-------------|--------------------------------------|
|-------------|-------12h14h15p14-17p14p12-----------|
|-15----------|-14h15----------------------15p14p12--|
|-------19----|--------------------------------------|
|-------------|--------------------------------------|


  Eb5         F5
   W           W
|-----------|--------------------------------|
|-----------|--------------------------------|
|-----------|--------------------------------|
|--1--------|--3-----------------------------|
|--1--------|--3-----------------------------|
|--1--------|--3-----------------------------|
|
|                  |------6-------|  |--3--|
|  W           Q   E  E  E  E  E  E  E  E  E
|-----------|--------------------------------|
|-----------|--------------------------------|
|-----------|-----14h15p14h15-17p15p14h15----|
|-15--------|-19--------------------------15-|
|-----------|--------------------------------|
|-----------|--------------------------------|


  G5            Bb5
   W             W
|-------------|--------------------------------------||
|-------------|--------------------------------------||
|-------------|--------------------------------------||
|--5----------|--8-----------------------------------||
|--5----------|--8-----------------------------------||
|--5----------|--8-----------------------------------||
|
|                |------6-------|  |------6-------|
|  H     H       E  E  E  E  E  E  E  E  E  E  E  E
|-------------|--------------------------------------||
|-------------|--------------------------------------||
|-------------|-------12h14h15p14-17p14p12-----------||
|-15----------|-14h15----------------------15p14p12--||
|-------19----|--------------------------------------||
|-------------|--------------------------------------||


 "It's final. Final, you will..."
  Into the pit Q.=178
  N.C.
 6/8
  E E E E E E   E E E E E E   E E E E E E   E E E E E E
|-------------|-------------|-------------|-------------|
|-------------|-------------|-------------|-------------|
|-------------|-------------|-------------|-------------|
|-------------|-------------|-------------|-------------|
|-----5-5-8-8-|-5-5-----5-5-|-----5-5-8-8-|-5-5-----5-5-|
|-0-0---------|-----8-8-----|-5-5---------|-----8-8-----|
|
| E E E E E E   E E E E E E   E E E E E E   E E E E E E
|-------------|-------------|-------------|-------------|
|-------------|-------------|-------------|-------------|
|-------------|-------------|-------------|-------------|
|-------------|-------------|-------------|-------------|
|-----5-5-8-8-|-5-5-----5-5-|-----5-5-8-8-|-5-5-----5-5-|
|-0-0---------|-----8-8-----|-5-5---------|-----8-8-----|


  N.C.
  E E E E  E  E   E E E E E E    E  E E E  E  E   E E  E  E E E
|---------------|-------------|-----------------|---------------|
|---------------|-------------|-----------------|---------------|
|---------------|-------------|-----------------|---------------|
|---------------|-------------|-----------------|---------------|
|-----8-8-12-12-|-8-8-----8-8-|-------8-8-12-12-|-8-8-------8-8-|
|-8-8-----------|-----8-8-----|-10-10-----------|-----10-10-----|
|
| E E E E  E  E   E E E E E E    E  E E E  E  E   E E  E  E E E
|---------------|-------------|-----------------|---------------|
|---------------|-------------|-----------------|---------------|
|---------------|-------------|-----------------|---------------|
|---------------|-------------|-----------------|---------------|
|-----8-8-12-12-|-8-8-----8-8-|-------8-8-12-12-|-8-8-------8-8-|
|-8-8-----------|-----8-8-----|-10-10-----------|-----10-10-----|


    N.C.
    |-3-| |-3-| |-3-|   |-3-| |-3-| |-3-|
    E E E E E E E E E   E E E E E E E E E
||--------------------|-------------------|
||o-------------------|-------------------|
||--------------------|-------------------|
||--------------------|-------------------|
||o-------5-5-5-8-8-8-|-5-5-5-------5-5-5-|
||--0-0-0-------------|-------8-8-8-------|
|
|   |-3-| |-3-| |-3-|   |-3-| |-3-| |-3-|
|   E E E E E E E E E   E E E E E E E E E
||--------------------|-------------------|
||o-------------------|-------------------|
||--------------------|-------------------|
||--------------------|-------------------|
||o-------5-5-5-8-8-8-|-5-5-5-------5-5-5-|
||--0-0-0-------------|-------8-8-8-------|


  |-3-| |-3-| |-3-|   |-3-| |-3-| |-3-|
  E E E E E E E E E   E E E E E E E E E
|-------------------|--------------------|
|-------------------|--------------------|
|-------------------|--------------------|
|-------------------|--------------------|
|-------5-5-5-8-8-8-|-5-5-5-------5-5-5--|
|-5-5-5-------------|-------8-8-8--------|
|
| |-3-| |-3-| |-3-|   |-3-| |-3-| |-3-|
| E E E E E E E E E   E E E E E E E E E
|-------------------|--------------------|
|-------------------|--------------------|
|-------------------|--------------------|
|-------------------|--------------------|
|-------5-5-5-8-8-8-|-5-5-5-------5-5-5--|
|-5-5-5-------------|-------8-8-8--------|


  N.C.
  |-3-| |-3-|  |--3--|   |-3-| |-3-| |-3-|
  E E E E E E  E  E  E   E E E E E E E E E
|----------------------|-------------------|
|----------------------|-------------------|
|----------------------|-------------------|
|----------------------|-------------------|
|-------8-8-8-12-12-12-|-8-8-8-------8-8-8-|
|-8-8-8----------------|-------8-8-8-------|
|
| |-3-| |-3-|  |--3--|   |-3-| |-3-| |-3-|
| E E E E E E  E  E  E   E E E E E E E E E
|----------------------|-------------------|
|----------------------|-------------------|
|----------------------|-------------------|
|----------------------|-------------------|
|-------8-8-8-12-12-12-|-8-8-8-------8-8-8-|
|-8-8-8----------------|-------8-8-8-------|


   |--3--| |-3-|  |--3--|   |-3-|  |--3--| |-3-|
   E  E  E E E E  E  E  E   E E E  E  E  E E E E
|-------------------------|-------------------------||
|-------------------------|------------------------o||
|-------------------------|-------------------------||
|-------------------------|-------------------------||
|----------8-8-8-12-12-12-|-8-8-8----------8-8-8---o||
|-10-10-10----------------|-------10-10-10----------||
|
|  |--3--| |-3-|  |--3--|   |-3-|  |--3--| |-3-|
|  E  E  E E E E  E  E  E   E E E  E  E  E E E E
|-------------------------|-------------------------||
|-------------------------|------------------------o||
|-------------------------|-------------------------||
|-------------------------|-------------------------||
|----------8-8-8-12-12-12-|-8-8-8----------8-8-8---o||
|-10-10-10----------------|-------10-10-10----------||


  N.C.
  Gtrs III, IV
  E  E  E E E  E   E  E E  E  E E   E  E  E E E  E   E  E E  E  E E
|----------------|----------------|----------------|----------------|
|----------------|----------------|----------------|----------------|
|----------------|----------------|----------------|----------------|
|----------------|------7--7------|----------------|------7--7------|
|-------5-5-7--7-|-8--8-------8-8-|-------5-5-7--7-|-8--8-------8-8-|
|-0--0-----------|----------------|-0--0-----------|----------------|
|
| Gtr I
| E  E  E E E  E   E  E E  E  E E   E  E  E E E  E   E  E E  E  E E
|----------------|----------------|----------------|----------------|
|----------------|-8--------------|----------------|-8--------------|
|---------7h9h10-|---10---------9-|---------7h9h10-|---10---------9-|
|-8h10h12--------|------8h10h12---|-8h10h12--------|------8h10h12---|
|----------------|----------------|----------------|----------------|
|----------------|----------------|----------------|----------------|
|
| Gtr II
| E  E  E E E  E   E  E E  E  E E   E  E  E E E  E   E  E E  E  E E
|----------------|----------------|----------------|----------------|
|----------------|-5--------------|----------------|-5--------------|
|---------5h7h=9-|----7---------5-|---------5h7h=9-|----7---------5-|
|-5h=7h=8--------|------5h=7h=8---|-5h=7h=8--------|------5h=7h=8---|
|----------------|----------------|----------------|----------------|
|----------------|----------------|----------------|----------------|


  N.C.
   E  E  E E  E  E    E  E  E  E  E  E    E  E  E E  E  E    E  E  E  E  E  E
|------------------|-------------------|------------------|-------------------|
|------------------|-------------------|------------------|-------------------|
|------------------|-------------------|------------------|-------------------|
|------------------|--------7--7-------|------------------|--------7--7-------|
|--------5-5--7--7-|--8--8--------8--8-|--------5-5--7--7-|--8--8--------8--8-|
|--5--5------------|-------------------|--5--5------------|-------------------|
|
|  E  E  E E  E  E    E  E  E  E  E  E    E  E  E E  E  E    E  E  E  E  E  E
|------------------|-------------------|------------------|-------------------|
|------------------|-10----------------|------------------|-10----------------|
|----------9h10h12-|----12----------10-|----------9h10h12-|----12----------10-|
|-10h12h14---------|-------10h12h14----|-10h12h14---------|-------10h12h14----|
|------------------|-------------------|------------------|-------------------|
|------------------|-------------------|------------------|-------------------|
|
|  E  E  E E  E  E    E  E  E  E  E  E    E  E  E E  E  E    E  E  E  E  E  E
|------------------|-------------------|------------------|-------------------|
|------------------|--6----------------|------------------|--6----------------|
|----------5h=7h=9-|-----9-----------7-|----------5h=7h=9-|-----9-----------7-|
|--7h=8h10---------|--------7h=8h10----|--7h=8h10---------|--------7h=8h10----|
|------------------|-------------------|------------------|-------------------|
|------------------|-------------------|------------------|-------------------|


  N.C.
   E  E  E  E  E  E    E  E  E  E  E  E
|-------------------|-------------------|
|-------------------|-------------------|
|-------------------|-------------------|
|-------------------|--------8--8-------|
|--------7--7--8--8-|-10-10-------10-10-|
|--8--8-------------|-------------------|
|
|  E  E  E  E  E  E    E  E  E  E  E  E
|-------------------|-------------------|
|-------------------|-11----------------|
|----------10h12h14-|----14----------12-|
|-12h14h15----------|-------12h14h15----|
|-------------------|-------------------|
|-------------------|-------------------|
|
|  E  E  E  E  E  E    E  E  E  E  E  E
|-------------------|-------------------|
|-------------------|--8----------------|
|-----------7h=9h10-|----10-----------9-|
|--8h10h12----------|--------8h10h12----|
|-------------------|-------------------|
|-------------------|-------------------|


   E  E  E  E  E  E    E  E  E  E  E  E
|-------------------|-------------------|
|-------------------|-------------------|
|-------------------|-------------------|
|-------------------|--------8--8-------|
|--------7--7--8--8-|-10-10-------10-10-|
|--8--8-------------|-------------------|
|
|  E  E  E  E  E  E    E  E  E  E  E  E
|-------------------|-------------------|
|-------------------|-11----------------|
|----------10h12h14-|----14----------12-|
|-12h14h15----------|-------12h14h15----|
|-------------------|-------------------|
|-------------------|-------------------|
|
|  E  E  E  E  E  E    E  E  E  E  E  E
|-------------------|-------------------|
|-------------------|--8----------------|
|-----------7h=9h10-|----10-----------9-|
|--8h10h12----------|--------8h10h12----|
|-------------------|-------------------|
|-------------------|-------------------|


  N.C.
   E  E  E  E  E  E    E  E  E  E  E  E
|-------------------|-------------------|
|-------------------|-------------------|
|-------------------|-------------------|
|-------------------|-------10-10-------|
|--------7--7--8--8-|-10-10-------10-10-|
|-10-10-------------|-------------------|
|
|  E  E  E  E  E  E    E  E  E  E  E  E
|-------------------|-------------------|
|-------------------|-13----------------|
|----------12h14h15-|----15----------14-|
|-14h15h17----------|-------14h15h17----|
|-------------------|-------------------|
|-------------------|-------------------|
|
|  E  E  E  E  E  E    E  E  E  E  E  E
|-------------------|-------------------|
|-------------------|-10----------------|
|-----------9h10h12-|----12----------10-|
|-10h12h14----------|-------10h12h14----|
|-------------------|-------------------|
|-------------------|-------------------|


   E  E  E  E  E  E    E  E  E  E  E  E
|-------------------|-------------------||
|-------------------|-------------------||
|-------------------|-------------------||
|-------------------|-------10-10-------||
|--------7--7--8--8-|-10-10-------10-10-||
|-10-10-------------|-------------------||
|
|  E  E  E  E  E  E    E  E  E  E  E  E
|-------------------|-------------------||
|-------------------|-13----------------||
|----------12h14h15-|----15----------14-||
|-14h15h17----------|-------14h15h17----||
|-------------------|-------------------||
|-------------------|-------------------||
|
|  E  E  E  E  E  E    E  E  E  E  E  E
|-------------------|-------------------||
|-------------------|-10----------------||
|-----------9h10h12-|----12----------10-||
|-10h12h14----------|-------10h12h14----||
|-------------------|-------------------||
|-------------------|-------------------||


   "Taunt."
    Tech Death Q.=158
    N.C.
    Gtr III
    PM--|         PM--|                   PM--|
          |--3--|         |------6------|
    S S E E  E  E S S E   E  E  E E  E  E S S E
||----------------------|-----------------------|
||o---------------------|-----------------------|
||----------------------|-----------------------|
||----------------------|---------5h=7h=8-------|
||o-------5h=7h=8-------|-5h=7h=8---------------|
||--0-0-0---------0-0-0-|-----------------0-0-0-|
|
|   Gtr IV
|   PM--|         PM--|                   PM--|
|         |--3--|         |------6------|
|   S S E E  E  E S S E   E  E  E E  E  E S S E
||----------------------|-----------------------|
||o---------------------|-----------------------|
||----------------------|-----------------------|
||----------------------|---------8h10h12-------|
||o-------8h10h12-------|-8h10h12---------------|
||--0-0-0---------0-0-0-|-----------------0-0-0-|


  |------6------|  |--3--|    |--3--|  |------6-------|
  E  E  E E  E  E  E  E  E    E  E  E  E  E  E  E  E  E   4x
|--------------------------|------------------------------||
|--------------------------|-----------------------------o||
|--------------------------|------------------------------||
|---------5h=7h=8----------|--7h=8h10-----------8h10h12---||
|-5h=7h=8----------7h=8h10-|-----------8h10h12-----------o||
|--------------------------|------------------------------||
|
| |------6------|  |--3--|    |--3--|  |------6-------|
| E  E  E E  E  E  E  E  E    E  E  E  E  E  E  E  E  E   4x
|--------------------------|------------------------------||
|--------------------------|-----------------------------o||
|--------------------------|------------------------------||
|---------8h10h12----------|-10h12h14----------12h14h15---||
|-8h10h12---------10h12h13-|----------12h13h15-----------o||
|--------------------------|------------------------------||


    N.C.
   4/4
    |------6------|  |------6-------|    |------6-------|  |------6-------|
    E  E  E E  E  E  E  E  E  E  E  E    E  E  E  E  E  E  E  E  E  E  E  E
||------------------------------------|--------------------------------------||
||o-----------------------------------|-------------------------------------o||
||------------------------------------|--------------------------------------||
||----------5h=7h=8-----------7h=8h10-|-----------8h10h12--7h=8h10-----------||
||o-5h=7h=8----------7h=8h10----------|--8h10h12--------------------7h=8h10-o||
||------------------------------------|--------------------------------------||
|
|   |------6------|  |------6-------|    |------6-------|  |------6-------|
|   E  E  E E  E  E  E  E  E  E  E  E    E  E  E  E  E  E  E  E  E  E  E  E
||------------------------------------|--------------------------------------||
||o-----------------------------------|-------------------------------------o||
||------------------------------------|--------------------------------------||
||----------8h10h12----------10h12h14-|----------12h14h15-10h12h14-----------||
||o-8h10h12---------10h12h13----------|-12h13h15-------------------10h12h13-o||
||------------------------------------|--------------------------------------||


 "This is a question of..."
  Slam dance Q=134
  D5
  PM-------------------------------------------------------------
  |-3-| |-3-| |-3-|    |-3-|      |-3-| |-3-| |-3-|    |-3-|
  S S S S S S S S S Q  S S S Q    S S S S S S S S S Q  S S S Q
|-------------------------------|-------------------------------|
|-------------------------------|-------------------------------|
|-------------------------------|-------------------------------|
|-------------------------------|-------------------------------|
|-0-0-0-0-0-0-0-0-0-0--0-0-0-0--|-0-0-0-0-0-0-0-0-0-0--0-0-0-0--|
|-0-0-0-0-0-0-0-0-0-0--0-0-0-0--|-0-0-0-0-0-0-0-0-0-0--0-0-0-0--|
|
| PM-------------------------------------------------------------
| |-3-| |-3-| |-3-|    |-3-|      |-3-| |-3-| |-3-|    |-3-|
| S S S S S S S S S Q  S S S Q    S S S S S S S S S Q  S S S Q
|-------------------------------|-------------------------------|
|-------------------------------|-------------------------------|
|-------------------------------|-------------------------------|
|-------------------------------|-------------------------------|
|-0-0-0-0-0-0-0-0-0-0--0-0-0-0--|-0-0-0-0-0-0-0-0-0-0--0-0-0-0--|
|-0-0-0-0-0-0-0-0-0-0--0-0-0-0--|-0-0-0-0-0-0-0-0-0-0--0-0-0-0--|


 ------------------------------|
  |-3-|     |-3-|    |-3-| |-3-|
  S S S E E S S S Q  S S S S S S
|--------------------------------|
|--------------------------------|
|--------------------------------|
|--------------------------------|
|-0-0-0-0-0-0-0-0-0--0-0-0-0-0-0-|
|-0-0-0-0-0-0-0-0-0--0-0-0-0-0-0-|
|
|------------------------------|
| |-3-|     |-3-|    |-3-| |-3-|
| S S S E E S S S Q  S S S S S S
|--------------------------------|
|--------------------------------|
|--------------------------------|
|--------------------------------|
|-0-0-0-0-0-0-0-0-0--0-0-0-0-0-0-|
|-0-0-0-0-0-0-0-0-0--0-0-0-0-0-0-|


  D5
  PM-----------------------------------------------------------------------
  |-3-| |-3-|    |-3-|    |-3-|   |-3-|     |-3-|     |-3-|     |-3-|
  S S S S S S Q  S S S Q  S S S   S S S S S S S S S S S S S S S S S S S S
|-------------------------------|-----------------------------------------|
|-------------------------------|-----------------------------------------|
|-------------------------------|-----------------------------------------|
|-------------------------------|-----------------------------------------|
|-0-0-0-0-0-0-0--0-0-0-0--0-0-0-|-0-0-0-0---0-0-0-0---0-0-0-0---0-0-0-0---|
|-0-0-0-0-0-0-0--0-0-0-0--0-0-0-|-0-0-0-0---0-0-0-0---0-0-0-0---0-0-0-0---|
|
| PM-----------------------------------------------------------------------
| |-3-| |-3-|    |-3-|    |-3-|   |-3-|     |-3-|     |-3-|     |-3-|
| S S S S S S Q  S S S Q  S S S   S S S S S S S S S S S S S S S S S S S S
|-------------------------------|-----------------------------------------|
|-------------------------------|-----------------------------------------|
|-------------------------------|-----------------------------------------|
|-------------------------------|-----------------------------------------|
|-0-0-0-0-0-0-0--0-0-0-0--0-0-0-|-0-0-0-0---0-0-0-0---0-0-0-0---0-0-0-0---|
|-0-0-0-0-0-0-0--0-0-0-0--0-0-0-|-0-0-0-0---0-0-0-0---0-0-0-0---0-0-0-0---|


 -------------------------------|
  |-3-|   |-3-|   |-3-|   |-3-|
  S S S E S S S E S S S E S S S E
|---------------------------------|
|---------------------------------|
|---------------------------------|
|---------------------------------|
|-0-0-0-0-0-0-0-0-0-0-0-0-0-0-0-0-|
|-0-0-0-0-0-0-0-0-0-0-0-0-0-0-0-0-|
|
|-------------------------------|
| |-3-|   |-3-|   |-3-|   |-3-|
| S S S E S S S E S S S E S S S E
|---------------------------------|
|---------------------------------|
|---------------------------------|
|---------------------------------|
|-0-0-0-0-0-0-0-0-0-0-0-0-0-0-0-0-|
|-0-0-0-0-0-0-0-0-0-0-0-0-0-0-0-0-|


  Into the pit [again] Q.=178
  N.C.
 6/8
  |-3-| |-3-| |-3-|   |-3-| |-3-| |-3-|
  E E E E E E E E E   E E E E E E E E E
|-------------------|-------------------|
|-------------------|-------------------|
|-------------------|-------------------|
|-------------------|-------------------|
|-------5-5-5-8-8-8-|-5-5-5-------5-5-5-|
|-0-0-0-------------|-------8-8-8-------|
|
| |-3-| |-3-| |-3-|   |-3-| |-3-| |-3-|
| E E E E E E E E E   E E E E E E E E E
|-------------------|-------------------|
|-------------------|-------------------|
|-------------------|-------------------|
|-------------------|-------------------|
|-------5-5-5-8-8-8-|-5-5-5-------5-5-5-|
|-0-0-0-------------|-------8-8-8-------|


  |-3-| |-3-| |-3-|   |-3-| |-3-| |-3-|
  E E E E E E E E E   E E E E E E E E E
|-------------------|-------------------|
|-------------------|-------------------|
|-------------------|-------------------|
|-------------------|-------------------|
|-------5-5-5-8-8-8-|-5-5-5-------5-5-5-|
|-5-5-5-------------|-------8-8-8-------|
|
| |-3-| |-3-| |-3-|   |-3-| |-3-| |-3-|
| E E E E E E E E E   E E E E E E E E E
|-------------------|-------------------|
|-------------------|-------------------|
|-------------------|-------------------|
|-------------------|-------------------|
|-------5-5-5-8-8-8-|-5-5-5-------5-5-5-|
|-5-5-5-------------|-------8-8-8-------|


  N.C.
  |-3-| |-3-|  |--3--|   |-3-| |-3-| |-3-|
  E E E E E E  E  E  E   E E E E E E E E E
|----------------------|-------------------|
|----------------------|-------------------|
|----------------------|-------------------|
|----------------------|-------------------|
|-------8-8-8-12-12-12-|-8-8-8-------8-8-8-|
|-8-8-8----------------|-------8-8-8-------|
|
| |-3-| |-3-|  |--3--|   |-3-| |-3-| |-3-|
| E E E E E E  E  E  E   E E E E E E E E E
|----------------------|-------------------|
|----------------------|-------------------|
|----------------------|-------------------|
|----------------------|-------------------|
|-------8-8-8-12-12-12-|-8-8-8-------8-8-8-|
|-8-8-8----------------|-------8-8-8-------|


   |--3--| |-3-|  |--3--|   |-3-|  |--3--| |-3-|
   E  E  E E E E  E  E  E   E E E  E  E  E E E E
|-------------------------|------------------------|
|-------------------------|------------------------|
|-------------------------|------------------------|
|-------------------------|------------------------|
|----------8-8-8-12-12-12-|-8-8-8----------8-8-8---|
|-10-10-10----------------|-------10-10-10---------|
|
|  |--3--| |-3-|  |--3--|   |-3-|  |--3--| |-3-|
|  E  E  E E E E  E  E  E   E E E  E  E  E E E E
|-------------------------|------------------------|
|-------------------------|------------------------|
|-------------------------|------------------------|
|-------------------------|------------------------|
|----------8-8-8-12-12-12-|-8-8-8----------8-8-8---|
|-10-10-10----------------|-------10-10-10---------|


  Slam dance [again] Q=134
  D5
 4/4
  PM--------------------------------------------------
                                         |-3-| |-3-|
  H    +E  S S E E   S S E S S E S S S S S S S S S S
|------------------|---------------------------------|
|------------------|---------------------------------|
|------------------|---------------------------------|
|------------------|---------------------------------|
|-0----(0)-0-0-0-0-|-0-0-0-0-0-0-0-0-0-0-0-0-0-0-0-0-|
|-0----(0)-0-0-0-0-|-0-0-0-0-0-0-0-0-0-0-0-0-0-0-0-0-|
|
| PM--------------------------------------------------
|                                        |-3-| |-3-|
| H    +E  S S E E   S S E S S E S S S S S S S S S S
|------------------|---------------------------------|
|------------------|---------------------------------|
|------------------|---------------------------------|
|------------------|---------------------------------|
|-0----(0)-0-0-0-0-|-0-0-0-0-0-0-0-0-0-0-0-0-0-0-0-0-|
|-0----(0)-0-0-0-0-|-0-0-0-0-0-0-0-0-0-0-0-0-0-0-0-0-|


 --------------------------------------------------|
                                 |-3-| |-3-|   |-3-|
  H    +E  S S E E   S S E S S E S S S S S S E S S S
|------------------|------------------------------------|
|------------------|------------------------------------|
|------------------|------------------------------------|
|------------------|------------------------------------|
|-0----(0)-0-0-0-0-|-0-0-0-0-0-0-0-0-0-0-0-0-0-0-0-0----|
|-0----(0)-0-0-0-0-|-0-0-0-0-0-0-0-0-0-0-0-0-0-0-0-0----|
|
|--------------------------------------------------|
|                                |-3-| |-3-|   |-3-|
| H    +E  S S E E   S S E S S E S S S S S S E S S S
|------------------|------------------------------------|
|------------------|------------------------------------|
|------------------|------------------------------------|
|------------------|------------------------------------|
|-0----(0)-0-0-0-0-|-0-0-0-0-0-0-0-0-0-0-0-0-0-0-0-0----|
|-0----(0)-0-0-0-0-|-0-0-0-0-0-0-0-0-0-0-0-0-0-0-0-0----|


  D5
  PM--------------------------------------------------------|
  |-3-|       |-3-| |-3-|      |-3-| |-3-|    |-3-|   |-3-|
  S S S E E E S S S S S S Q    S S S S S S Q  S S S E S S S E
|----------------------------|--------------------------------||
|----------------------------|--------------------------------||
|----------------------------|--------------------------------||
|----------------------------|--------------------------------||
|-0-0-0-0-0-0-0-0-0-0-0-0-0--|-0-0-0-0-0-0-0--0-0-0-0-0-0-0-0-||
|-0-0-0-0-0-0-0-0-0-0-0-0-0--|-0-0-0-0-0-0-0--0-0-0-0-0-0-0-0-||
|
| PM--------------------------------------------------------|
| |-3-|       |-3-| |-3-|      |-3-| |-3-|    |-3-|   |-3-|
| S S S E E E S S S S S S Q    S S S S S S Q  S S S E S S S E
|----------------------------|--------------------------------||
|----------------------------|--------------------------------||
|----------------------------|--------------------------------||
|----------------------------|--------------------------------||
|-0-0-0-0-0-0-0-0-0-0-0-0-0--|-0-0-0-0-0-0-0--0-0-0-0-0-0-0-0-||
|-0-0-0-0-0-0-0-0-0-0-0-0-0--|-0-0-0-0-0-0-0--0-0-0-0-0-0-0-0-||


 Fill
  A Tempo Q=208
  A5                                     G5
  Gtr I
                                         PM
  E E   Q   H              H         Q   Q
|------------------------|-------------------|
|------------------------|-------------------|
|------------------------|-------------------|
|-7----------------------|-------------------|
|-7----------------------|---------------5---|
|-7----------------------|---------------5---|
|
| Gtr II
|   PM--|   PM--|    PM----|   PM--|   PM  PM
| E S S E E S S E  E S S   E E S S E E E E E
|------------------------|-------------------|
|------------------------|-------------------|
|------------------------|-------------------|
|-7---------------10-----|-------------------|
|-7-------8--------------|---8-------7---8---|
|-7-7-7-7---7-7-7----7-7-|-7---7-7-7---7---7-|


  G5
  E E   Q   H             W
|-----------------------|-------------------|
|-----------------------|-------------------|
|-----------------------|-------------------|
|-5---------------------|-------------------|
|-5---------------------|-------------------|
|-5---------------------|-------------------|
|
|   PM--|   PM--|   PM----|   PM--|   PM  PM
| E S S E E S S E E S S   E E S S E E E E E
|-----------------------|-------------------|
|-----------------------|-------------------|
|-----------------------|-------------------|
|-5---------------8-----|---7---------------|
|-5-------8-------------|-----------8---7---|
|-5-5-5-5---5-5-5---5-5-|-5---5-5-5---5---5-|


  F5
  W                       +W
|-----------------------|---------------------|
|-----------------------|---------------------|
|-----------------------|---------------------|
|-3---------------------|-(3)-----------------|
|-3---------------------|-(3)-----------------|
|-3---------------------|-(3)-----------------|
|
|   PM--|   PM--|   PM----|     PM--|   PM  PM
| E S S E E S S E E S S    E  E S S E E E E E
|-----------------------|---------------------|
|-----------------------|---------------------|
|-----------------------|---------------------|
|-3-------7-------5-----|-----3-------2---3---|
|-3---------------------|---------------------|
|-3-3-3-3---3-3-3---3-3-|--3----3-3-3---3---3-|


  E E   Q   H             W
|-----------------------|-------------------||
|-----------------------|-------------------||
|-----------------------|-------------------||
|-3---------------------|-------------------||
|-3---------------------|-------------------||
|-3---------------------|-------------------||
|
|   PM--|   PM--|   PM----|   PM--|   PM  PM
| E S S E E S S E E S S   E E S S E E E E E
|-----------------------|-------------------||
|-----------------------|-------------------||
|-----------------------|-------------------||
|-3-------7-------5-----|---3-------2---3---||
|-3---------------------|-------------------||
|-3-3-3-3---3-3-3---3-3-|-3---3-3-3---3---3-||


   "Buried all, and tried to..."
    A5  N.C.
    PM----|   PM--|    PM----|   PM--|   PM  PM-
    E S S E E S S E  E S S   E E S S E E E E E
||-------------------------|-------------------|
||o------------------------|-------------------|
||-------------------------|-------------------|
||------------------10-----|-------------------|
||o-7-------8--------------|---8-------7---8---|
||--7-7-7-7---7-7-7----7-7-|-7---7-7-7---7---7-|
|
|   PM----|   PM--|    PM----|   PM--|   PM  PM-
|   E S S E E S S E  E S S   E E S S E E E E E
||-------------------------|-------------------|
||o------------------------|-------------------|
||-------------------------|-------------------|
||------------------10-----|-------------------|
||o-7-------8--------------|---8-------7---8---|
||--7-7-7-7---7-7-7----7-7-|-7---7-7-7---7---7-|


  G5  N.C.
 -------|   PM--|   PM----|   PM--|   PM  PM
  E S S E E S S E E S S   E E S S E E E E E
|-----------------------|---------------------|
|-----------------------|---------------------|
|-----------------------|---------------------|
|-----------------8-----|---7-----------------|
|-5-------8-------------|-----------8---7-----|
|-5-5-5-5---5-5-5---5-5-|-5---5-5-5---5---5---|
|
|-------|   PM--|   PM----|   PM--|   PM  PM
| E S S E E S S E E S S   E E S S E E E E E
|-----------------------|---------------------|
|-----------------------|---------------------|
|-----------------------|---------------------|
|-----------------8-----|---7-----------------|
|-5-------8-------------|-----------8---7-----|
|-5-5-5-5---5-5-5---5-5-|-5---5-5-5---5---5---|


  F5  N.C.
  PM----|   PM--|   PM----|   PM--|   PM  PM-
  E S S E E S S E E S S   E E S S E E E E E
|-----------------------|-------------------|
|-----------------------|-------------------|
|-----------------------|-------------------|
|---------7-------5-----|---3-------2---3---|
|-3---------------------|-------------------|
|-3-3-3-3---3-3-3---3-3-|-3---3-3-3---3---3-|
|
| PM----|   PM--|   PM----|   PM--|   PM  PM-
| E S S E E S S E E S S   E E S S E E E E E
|-----------------------|-------------------|
|-----------------------|-------------------|
|-----------------------|-------------------|
|---------7-------5-----|---3-------2---3---|
|-3---------------------|-------------------|
|-3-3-3-3---3-3-3---3-3-|-3---3-3-3---3---3-|


  F5  N.C.
 -------|   PM--|   PM----|   PM--|   PM  PM
  E S S E E S S E E S S   E E S S E E E E E
|-----------------------|--------------------||
|-----------------------|-------------------o||
|-----------------------|--------------------||
|---------7-------5-----|---3-------2---3----||
|-3---------------------|-------------------o||
|-3-3-3-3---3-3-3---3-3-|-3---3-3-3---3---3--||
|
|-------|   PM--|   PM----|   PM--|   PM  PM
| E S S E E S S E E S S   E E S S E E E E E
|-----------------------|--------------------||
|-----------------------|-------------------o||
|-----------------------|--------------------||
|---------7-------5-----|---3-------2---3----||
|-3---------------------|-------------------o||
|-3-3-3-3---3-3-3---3-3-|-3---3-3-3---3---3--||


 Interlude
  Slower Q=147
  Eb5                         F5
  Gtr III
  W                             W
|---------------------------|---------------------------|
|---------------------------|---------------------------|
|---------------------------|---------------------------|
|-1-------------------------|---3-----------------------|
|-1-------------------------|---3-----------------------|
|-1-------------------------|---3-----------------------|
|
| Gtr IV
|                                      |------6-------|
| Q   Q    E. S  S  S  S  S    +H      E  E  E  E  E  E
|---------------------------|---------------------------|
|---------------------------|---------------------------|
|-------------8h12p10----10-|-(10)----14h15-14h15-14p12-|
|-8--10--/12----------12----|---------------------------|
|---------------------------|---------------------------|
|---------------------------|---------------------------|


  G5            Bb5
   W             W
|-------------|-------------------------------------|
|-------------|-------------------------------------|
|-------------|-------------------------------------|
|--5----------|--8----------------------------------|
|--5----------|--8----------------------------------|
|--5----------|--8----------------------------------|
|
|                |------6-------|  |------6-------|
|  H     H       E  E  E  E  E  E  E  E  E  E  E  E
|-------------|-------------------------------------|
|-------------|-------------------------------------|
|-------------|-------12h14h15p14-17p14p12----------|
|-15----------|-14h15----------------------15p14p12-|
|-------19----|-------------------------------------|
|-------------|-------------------------------------|


  Eb5                                       F5
   T    T    T    T    T    T    T    T      T    T    T    T    T    T    T    T
   S S  S S  S S  S S  S S  S S  S S  S S    S S  S S  S S  S S  S S  S S  S S  S S
|-----------------------------------------|-----------------------------------------|
|-----------------------------------------|-----------------------------------------|
|-21p0-19p0-21p0-17p0-24p0-19p0-21p0-17p0-|-21p0-19p0-21p0-17p0-24p0-19p0-21p0-17p0-|
|-----------------------------------------|-----------------------------------------|
|-----------------------------------------|-----------------------------------------|
|-----------------------------------------|-----------------------------------------|
|
|  PM---------------|       PM--------------------------------|       PM-------------
|  S S  S S  S S  S S  E    E    Q           S S  S S  S S  S S  E    E    Q
|-----------------------------------------|-----------------------------------------|
|-----------------------------------------|-----------------------------------------|
|-----------------------------------------|-----------------------------------------|
|----------------------1------------------|----------------------3------------------|
|--1-1--1-1--1-1--1-1--1------------------|--3-3--3-3--3-3--3-3--3------------------|
|--1-1--1-1--1-1--1-1--1------------------|--3-3--3-3--3-3--3-3--3------------------|


  G5                                        Bb5
   T    T    T    T    T    T    T    T      T    T    T    T    T    T    T    T
   S S  S S  S S  S S  S S  S S  S S  S S    S S  S S  S S  S S  S S  S S  S S  S S
|-----------------------------------------|--------------------------------------------|
|-----------------------------------------|--------------------------------------------|
|-21p0-19p0-21p0-17p0-24p0-19p0-21p0-17p0-|-21p0-19p0-21p0-17p0-24p0-19p0-21p0-17p0----|
|-----------------------------------------|--------------------------------------------|
|-----------------------------------------|--------------------------------------------|
|-----------------------------------------|--------------------------------------------|
|
|-------------------|       PM--------------------------------|       PM
|  S S  S S  S S  S S  E    E    Q           S S  S S  S S  S S  E    E    Q
|-----------------------------------------|--------------------------------------------|
|-----------------------------------------|--------------------------------------------|
|-----------------------------------------|--------------------------------------------|
|----------------------5------------------|----------------------8---------------------|
|--5-5--5-5--5-5--5-5--5------------------|--8-8--8-8--8-8--8-8--8---------------------|
|--5-5--5-5--5-5--5-5--5------------------|--8-8--8-8--8-8--8-8--8---------------------|


  Eb5                                       F5
   T    T    T    T    T    T    T    T      T    T    T    T    T    T    T    T
   S S  S S  S S  S S  S S  S S  S S  S S    S S  S S  S S  S S  S S  S S  S S  S S
|-----------------------------------------|-----------------------------------------|
|-----------------------------------------|-----------------------------------------|
|-21p0-19p0-21p0-17p0-24p0-19p0-21p0-17p0-|-21p0-19p0-21p0-17p0-24p0-19p0-21p0-17p0-|
|-----------------------------------------|-----------------------------------------|
|-----------------------------------------|-----------------------------------------|
|-----------------------------------------|-----------------------------------------|
|
|  PM----------------------|       PM--------------------------------|       PM------
|  S S  S S  S S  S S  S S  S E    S  S S    S S  S S  S S  S S  S S  S E    S  S S
|-----------------------------------------|-----------------------------------------|
|-----------------------------------------|-----------------------------------------|
|-----------------------------------------|-----------------------------------------|
|-----------------------------1-----------|-----------------------------3-----------|
|--1-1--1-1--1-1--1-1--1-1--1-1-------1-1-|--3-3--3-3--3-3--3-3--3-3--3-3-------3-3-|
|--1-1--1-1--1-1--1-1--1-1--1-1-------1-1-|--3-3--3-3--3-3--3-3--3-3--3-3-------3-3-|


  G5                                        Bb5
   T    T    T    T    T    T    T    T      T    T    T    T    T    T    T    T
   S S  S S  S S  S S  S S  S S  S S  S S    S S  S S  S S  S S  S S  S S  S S  S S
|-----------------------------------------|--------------------------------------------||
|-----------------------------------------|--------------------------------------------||
|-21p0-19p0-21p0-17p0-24p0-19p0-21p0-17p0-|-21p0-19p0-21p0-17p0-24p0-19p0-21p0-17p0----||
|-----------------------------------------|--------------------------------------------||
|-----------------------------------------|--------------------------------------------||
|-----------------------------------------|--------------------------------------------||
|
|--------------------------|       PM--------------------------------|       PM---|
|  S S  S S  S S  S S  S S  S E    S  S S    S S  S S  S S  S S  S S  S E    S  S S
|-----------------------------------------|--------------------------------------------||
|-----------------------------------------|--------------------------------------------||
|-----------------------------------------|--------------------------------------------||
|-----------------------------5-----------|-----------------------------8--------------||
|--5-5--5-5--5-5--5-5--5-5--5-5-------5-5-|--8-8--8-8--8-8--8-8--8-8--8-8-------8-8----||
|--5-5--5-5--5-5--5-5--5-5--5-5-------5-5-|--8-8--8-8--8-8--8-8--8-8--8-8-------8-8----||


 loltritonebreakdown
  Bb/E
   >
   W                               +W
|-------------------------------|----------------------------------|
|-------------------------------|----------------------------------|
|-14----------------------------|-(14)-----------------------------|
|-------------------------------|----------------------------------|
|-------------------------------|----------------------------------|
|-------------------------------|----------------------------------|
|
|  PM-----------------------------------------------------------|
|  S S S S S S S S S S S E. S S     S  S S S S S S E. S S S S S S
|-------------------------------|----------------------------------|
|-------------------------------|----------------------------------|
|-------------------------------|----------------------------------|
|-------------------------------|----------------------------------|
|--1-1-1-1-1-1-1-1-1-1-1-1--1-1-|---1--1-1-1-1-1-1-1--1-1-1-1-1-1--|
|--2-2-2-2-2-2-2-2-2-2-2-2--2-2-|---2--2-2-2-2-2-2-2--2-2-2-2-2-2--|


  Bb/E
  PM--------------------------------------------------------|
  S S S S S S S S S S S E. S S   S S S S S S S E. S S S S S S
|------------------------------|-------------------------------|
|------------------------------|-------------------------------|
|------------------------------|-------------------------------|
|------------------------------|-------------------------------|
|-1-1-1-1-1-1-1-1-1-1-1-1--1-1-|-1-1-1-1-1-1-1-1--1-1-1-1-1-1--|
|-2-2-2-2-2-2-2-2-2-2-2-2--2-2-|-2-2-2-2-2-2-2-2--2-2-2-2-2-2--|
|
| PM--------------------------------------------------------|
| S S S S S S S S S S S E. S S   S S S S S S S E. S S S S S S
|------------------------------|-------------------------------|
|------------------------------|-------------------------------|
|------------------------------|-------------------------------|
|------------------------------|-------------------------------|
|-1-1-1-1-1-1-1-1-1-1-1-1--1-1-|-1-1-1-1-1-1-1-1--1-1-1-1-1-1--|
|-2-2-2-2-2-2-2-2-2-2-2-2--2-2-|-2-2-2-2-2-2-2-2--2-2-2-2-2-2--|


  A/Eb
  PM--------------------------------------------------------|
  S S S S S S S S S S S E. S S   S S S S S S S E. S S S S S S
|------------------------------|-------------------------------|
|------------------------------|-------------------------------|
|------------------------------|-------------------------------|
|------------------------------|-------------------------------|
|-0-0-0-0-0-0-0-0-0-0-0-0--0-0-|-0-0-0-0-0-0-0-0--0-0-0-0-0-0--|
|-1-1-1-1-1-1-1-1-1-1-1-1--1-1-|-1-1-1-1-1-1-1-1--1-1-1-1-1-1--|
|
| PM--------------------------------------------------------|
| S S S S S S S S S S S E. S S   S S S S S S S E. S S S S S S
|------------------------------|-------------------------------|
|------------------------------|-------------------------------|
|------------------------------|-------------------------------|
|------------------------------|-------------------------------|
|-0-0-0-0-0-0-0-0-0-0-0-0--0-0-|-0-0-0-0-0-0-0-0--0-0-0-0-0-0--|
|-1-1-1-1-1-1-1-1-1-1-1-1--1-1-|-1-1-1-1-1-1-1-1--1-1-1-1-1-1--|


  A/Eb
  PM--------------------------------------------------------|
  S S S S S S S S S S S E. S S   S S S S S S S E. S S S S S S
|------------------------------|-------------------------------|
|------------------------------|-------------------------------|
|------------------------------|-------------------------------|
|------------------------------|-------------------------------|
|-0-0-0-0-0-0-0-0-0-0-0-0--0-0-|-0-0-0-0-0-0-0-0--0-0-0-0-0-0--|
|-1-1-1-1-1-1-1-1-1-1-1-1--1-1-|-1-1-1-1-1-1-1-1--1-1-1-1-1-1--|
|
| PM--------------------------------------------------------|
| S S S S S S S S S S S E. S S   S S S S S S S E. S S S S S S
|------------------------------|-------------------------------|
|------------------------------|-------------------------------|
|------------------------------|-------------------------------|
|------------------------------|-------------------------------|
|-0-0-0-0-0-0-0-0-0-0-0-0--0-0-|-0-0-0-0-0-0-0-0--0-0-0-0-0-0--|
|-1-1-1-1-1-1-1-1-1-1-1-1--1-1-|-1-1-1-1-1-1-1-1--1-1-1-1-1-1--|


  A/Eb        D5            N.C.
                           2/4
  PM--------------------------|
  S S E S S E S S E S S E   E E E E
|-------------------------|-----0---|
|-------------------------|---6---6-|
|-------------------------|-7-------|
|-------------------------|---------|
|-0-0-0-0-0-0-0-0-0-0-0-0-|---------|
|-1-1-1-1-1-1-0-0-0-0-0-0-|---------|
|
| PM--------------------|
| S S E S S E S S E S S E   H
|-------------------------|---------|
|-------------------------|---------|
|-------------------------|---------|
|-------------------------|---------|
|-0-0-0-0-0-0-0-0-0-0-0-0-|---------|
|-1-1-1-1-1-1-0-0-0-0-0-0-|---------|


 Nice sounding part
  D5
 4/4
  E   E   E   E   E   E    E E      E    E   E   E    E E   E   E
|-----0-----------0----------8---|-(8)-------0----------0-----------|
|---------6-----------6----------|--6------------6----------6-------|
|-7-----------7------------7-----|-------7------------7---------7---|
|--------------------------------|----------------------------------|
|--------------------------------|----------------------------------|
|--------------------------------|----------------------------------|
|
| PM-----------------------------------------------------------------
| S S S S S S S S S S S E.   S S    S  S S S S S S E.   S S S S S S
|--------------------------------|----------------------------------|
|--------------------------------|----------------------------------|
|--------------------------------|----------------------------------|
|--------------------------------|----------------------------------|
|-0-0-0-0-0-0-0-0-0-0-0-0----0-0-|--0--0-0-0-0-0-0-0----0-0-0-0-0-0-|
|-0-0-0-0-0-0-0-0-0-0-0-0----0-0-|--0--0-0-0-0-0-0-0----0-0-0-0-0-0-|


  E   E   E   E   E   E    E E      E    E   E   E    E E   E   E
|-----0-----------0----------8---|-(8)-------0----------0--------------||
|---------6-----------6----------|--6------------6----------6----------||
|-7-----------7------------7-----|-------7------------7---------7------||
|--------------------------------|-------------------------------------||
|--------------------------------|-------------------------------------||
|--------------------------------|-------------------------------------||
|
|-----------------------------------------------------------------|
| S S S S S S S S S S S E.   S S    S  S S S S S S E.   S S S S S S
|--------------------------------|-------------------------------------||
|--------------------------------|-------------------------------------||
|--------------------------------|-------------------------------------||
|--------------------------------|-------------------------------------||
|-0-0-0-0-0-0-0-0-0-0-0-0----0-0-|--0--0-0-0-0-0-0-0----0-0-0-0-0-0----||
|-0-0-0-0-0-0-0-0-0-0-0-0----0-0-|--0--0-0-0-0-0-0-0----0-0-0-0-0-0----||


 "This is a question of..."
  D5
  PM--------------------------------------------------------------
  |-3-| |-3-|   |-3-|     |-3-| |-3-|   |-3-|       |-3-|
  S S S S S S E S S S E E S S S S S S   S S S S S E S S S E Q.
|-------------------------------------|--------------------------|
|-------------------------------------|--------------------------|
|-------------------------------------|--------------------------|
|-------------------------------------|--------------------------|
|-0-0-0-0-0-0-0-0-0-0-0---0-0-0-0-0-0-|-0-0-0-0-0-0-0-0-0-0------|
|-0-0-0-0-0-0-0-0-0-0-0---0-0-0-0-0-0-|-0-0-0-0-0-0-0-0-0-0------|
|
| PM--------------------------------------------------------------
| |-3-| |-3-|   |-3-|     |-3-| |-3-|   |-3-|       |-3-|
| S S S S S S E S S S E E S S S S S S   S S S S S E S S S E Q.
|-------------------------------------|--------------------------|
|-------------------------------------|--------------------------|
|-------------------------------------|--------------------------|
|-------------------------------------|--------------------------|
|-0-0-0-0-0-0-0-0-0-0-0---0-0-0-0-0-0-|-0-0-0-0-0-0-0-0-0-0------|
|-0-0-0-0-0-0-0-0-0-0-0---0-0-0-0-0-0-|-0-0-0-0-0-0-0-0-0-0------|


 -----------------------------------|
  |-3-|     |-3-|   |-3-| |-3-| |-3-|
  S S S E E S S S E S S S S S S S S S
|----------------------------------------|
|----------------------------------------|
|----------------------------------------|
|----------------------------------------|
|-0-0-0-0-0-0-0-0-0-0-0-0-0-0-0-0-0-0----|
|-0-0-0-0-0-0-0-0-0-0-0-0-0-0-0-0-0-0----|
|
|-----------------------------------|
| |-3-|     |-3-|   |-3-| |-3-| |-3-|
| S S S E E S S S E S S S S S S S S S
|----------------------------------------|
|----------------------------------------|
|----------------------------------------|
|----------------------------------------|
|-0-0-0-0-0-0-0-0-0-0-0-0-0-0-0-0-0-0----|
|-0-0-0-0-0-0-0-0-0-0-0-0-0-0-0-0-0-0----|


  D5
  PM-----------------------------------
  |-3-| |-3-|   |-3-|     |-3-| |-3-|
  S S S S S S E S S S E E S S S S S S
|-------------------------------------|
|-------------------------------------|
|-------------------------------------|
|-------------------------------------|
|-0-0-0-0-0-0-0-0-0-0-0---0-0-0-0-0-0-|
|-0-0-0-0-0-0-0-0-0-0-0---0-0-0-0-0-0-|
|
| PM-----------------------------------
| |-3-| |-3-|   |-3-|     |-3-| |-3-|
| S S S S S S E S S S E E S S S S S S
|-------------------------------------|
|-------------------------------------|
|-------------------------------------|
|-------------------------------------|
|-0-0-0-0-0-0-0-0-0-0-0---0-0-0-0-0-0-|
|-0-0-0-0-0-0-0-0-0-0-0---0-0-0-0-0-0-|


  Bb5                                   Bb5    Fadd11/Bb
 -----|   PM--|   PM--|   PM--------|
  |-3-|   |-3-|   |-3-|   |-3-| |-3-|
  S S S E S S S E S S S E S S S S S S   S S  S  S  S  S  S  S  E Q.
|-------------------------------------|-------------------------------||
|-------------------------------------|-----10-10-10-10-10-10-10------||
|-------------------------------------|-----10-10-10-10-10-10-10------||
|-------8-------8-------8-------------|-8-8--8--8--8--8--8--8--8------||
|-------8-------8-------8-------------|-8-8--8--8--8--8--8--8--8------||
|-8-8-8-8-8-8-8-8-8-8-8-8-8-8-8-8-8-8-|-8-8--8--8--8--8--8--8--8------||
|
|-----|   PM--|   PM--|   PM--------|
| |-3-|   |-3-|   |-3-|   |-3-| |-3-|
| S S S E S S S E S S S E S S S S S S   S S  S  S  S  S  S  S  E Q.
|-------------------------------------|-------------------------------||
|-------------------------------------|-----10-10-10-10-10-10-10------||
|-------------------------------------|-----10-10-10-10-10-10-10------||
|-------8-------8-------8-------------|-8-8--8--8--8--8--8--8--8------||
|-------8-------8-------8-------------|-8-8--8--8--8--8--8--8--8------||
|-8-8-8-8-8-8-8-8-8-8-8-8-8-8-8-8-8-8-|-8-8--8--8--8--8--8--8--8------||


 Outro
  D5
  W          +W           +W           +W           +W           +W
|----------|------------|------------|------------|------------|--------*|
|----------|------------|------------|------------|------------|--------*|
|----------|------------|------------|------------|------------|--------*|
|-0--------|-(0)--------|-(0)--------|-(0)--------|-(0)--------|-(0)----*|
|-0--------|-(0)--------|-(0)--------|-(0)--------|-(0)--------|-(0)----*|
|-0--------|-(0)--------|-(0)--------|-(0)--------|-(0)--------|-(0)----*|
|
| W          +W           +W           +W           +W           +W
|----------|------------|------------|------------|------------|--------*|
|----------|------------|------------|------------|------------|--------*|
|----------|------------|------------|------------|------------|--------*|
|-0--------|-(0)--------|-(0)--------|-(0)--------|-(0)--------|-(0)----*|
|-0--------|-(0)--------|-(0)--------|-(0)--------|-(0)--------|-(0)----*|
|-0--------|-(0)--------|-(0)--------|-(0)--------|-(0)--------|-(0)----*|


Duration Legend
---------------
W - whole; H - half; Q - quarter; E - 8th; S - 16th; T - 32nd; X - 64th; a - acciaccatura
+ - note tied to previous; . - note dotted; .. - note double dotted
Uncapitalized letters represent notes that are staccato (1/2 duration)
Irregular groupings are notated above the duration line
Duration letters will always appear directly above the note/fret number it represents the
duration for.  Duration letters with no fret number below them represent rests.  Multi-
bar rests are notated in the form Wxn, where n is the number of bars to rest for.  Low
melody durations appear below the staff

Tablature Legend
----------------
 h   - hammer-on
 p   - pull-off
 b   - bend
 pb  - pre-bend
 r   - bend release (if no number after the r, then release immediately)
 /\  - slide into or out of (from/to "nowhere")
 s   - legato slide
 S   - shift slide
  - natural harmonic
[n]  - artificial harmonic
n(n) - tapped harmonic
 ~   - vibrato
 tr  - trill
 T   - tap
 TP  - trem. picking
 PM  - palm muting
\n/  - tremolo bar dip; n = amount to dip
 \n  - tremolo bar down
 n/  - tremolo bar up
/n\  - tremolo bar inverted dip
 =   - hold bend; also acts as connecting device for hammers/pulls
 <>  - volume swell (louder/softer)
 x   - on rhythm slash represents muted slash
 o   - on rhythm slash represents single note slash

Misc Legend
-----------
 |  - bar
||  - double bar
||o - repeat start
o|| - repeat end
*|  - double bar (ending)
 :  - bar (freetime)
 $  - Segno
 &  - Coda
Tempo markers -  = BPM(8/16=s8/s16), where s8 = swing 8ths, s16 = swing 16ths

            
            
Suggest correction
Creating personal tab
Creating personal tab
You can edit any tab online and save it as your Personal.

You can edit, replace or remove any tab part or add personal notes – all changes will be seen only by you.

Personal tabs can be accessed anytime from any device, even offline.
Learn more »
Give kudos to tab author, rate the tab!
1 2 3 4 5
comments
print report bad tab
2 comments total.
0 reply
silentshane420 10 Sep 09, 2008 05:13 PM

I FUCKING LOVE YOU BRO!!! Itsd about ****ing time someone does a tab of one of the best bands ever! thank you sooooooooo much for tabing this! and it being acurate at that! if not precise.

0 reply
austinmandrell 83 Feb 26, 2010 04:01 PM

nice job man, do it on guitar pro i would love you forvere

guest
You may want to rate the tab now too:
select rating
Wanna post a correction for this tab? Suggest correction