Oops, an error
Loading. Please wait.

Salvage The Structure tab

version 1
version 1

Whole song

2,351 views 1 this week
5 commentsread comments
1 2 3 4 5
2 more votes to show rating
add to favorites
×
Save as Personal and add changes to this tab that will be seen only by you. Learn more ›
×
You can save this tab as Personal to edit and correct it or add notes. All changes will be seen only by you. Learn more »
launch autoscroll
font size
0
reset
how to read this tab
guitar tuner
edit
Autoscroll
slow
fast
+/-
esc
set tempo
stop
Author
-------------------------------------------------------------------------------
                                 SALVAGE THE STRUCTURE - MY BITTER END
-------------------------------------------------------------------------------

Tabbed by: Shahab
Contact: www.youtube.com/thefinalcut

Tuning: Drop C# (Drop Db)
Contents: Full song, both guitar parts

Intro (0:00 - 0:58)

Rhythm (play all of this 6 times):

D#|------5-5-5------5-5-5------5-5-5------5-5-5----------|
A#|------5-5-5------5-5-5------5-5-5------5-5-5----------|
F#|------6-6-6------6-6-6------6-6-6------6-6-6----------|
C#|--4-4--------4-4--------4-4--------4-4----------------|
G#|--4-4--------4-4--------4-4--------4-4----------------|
C#|--4-4--------4-4--------4-4--------4-4----------------|


D#|------5-5-5------5-5-5------5-5-5------4-4-4----------|
A#|------5-5-5------5-5-5------5-5-5------5-5-5----------|
F#|------2-2-2------2-2-2------2-2-2------2-2-2----------|
C#|--0-0--------0-0--------0-0--------0-0----------------|
G#|--0-0--------0-0--------0-0--------0-0----------------|
C#|--0-0--------0-0--------0-0--------0-0----------------|

Lead:

D#|--------------------------------------------------------------|
A#|--------------------------------------------------------------|
F#|-----6h7p6---------------------------9-----9-----9-----9------| x 3
C#|--4~-------7h9p7--6h7p6-------6~-7~----7-6---7-6---7-6---7-6--|
G#|------------------------7h9p7---------------------------------|
C#|--------------------------------------------------------------|


D#|-----------------------------------------------------|
A#|-----------------------------------------------------|
F#|--9-----9------------------7~--7/9~--9/11~--11/13~---|
C#|----7-6---7-6--7~--7/9~------------------------------|
G#|-----------------------------------------------------|
C#|-----------------------------------------------------|


D#|-----------------------------------------------------|
A#|-----------------------------------------------------|
F#|--14p13-13-13p11-11-11/13~---------------------------|   x 2
C#|-----------------------------------------------------|
G#|-----------------------------------------------------|
C#|-----------------------------------------------------|


D#|-----------------------------------------------------|
A#|------------15-15-15-14-----15-15-15-14--------------|
F#|--14~--16~--------------14--------------14-----------|
C#|-----------------------------------------------------|
G#|-----------------------------------------------------|
C#|-----------------------------------------------------|

Pre-Verse I (0:58 - 1:38)

Rhythm (play all of this 4 times):

D#|------------------------------------------------------|
A#|------------------------------------------------------|
F#|------------------------------------------------------|
C#|--4~---------4~---------4~---------4~-----------------|
G#|--4~---------4~---------4~---------4~-----------------|
C#|--4~---------4~---------4~---------4~-----------------|


D#|------------------------------------------------------|
A#|------------------------------------------------------|
F#|------------------------------------------------------|
C#|--0~---------0~---------0~---------0~-----------------|
G#|--0~---------0~---------0~---------0~-----------------|
C#|--0~---------0~---------0~---------0~-----------------|

Lead (play all of this 4 times):

D#|--17-17-17-17-17-17-------------------17-17-17-17-17-17---------------------------|
A#|--------------------15-15-15-15-15-15-------------------15-15-15-15-15-15---------|
F#|----------------------------------------------------------------------------------|
C#|----------------------------------------------------------------------------------|
G#|----------------------------------------------------------------------------------|
C#|----------------------------------------------------------------------------------|

D#|----------------------------------------------------------------------------------|
A#|---15p14----14----14---15p14----14----14---15p14----14----14---15p14----14----14--|
F#|---------14------------------14------------------14------------------14-----------|
C#|---------------16------------------16------------------16------------------16-----|
G#|----------------------------------------------------------------------------------|
C#|----------------------------------------------------------------------------------|

Verse I (1:38 - 2:20)

Both guitars (only lead the first time):
x 2
D#|-----------------------------------------------------------------------------------------|
A#|-----------------------------------------------------------------------------------------|
F#|----------------------------------------------------------------9-----9-----9-----9------|
C#|--4----6p0-7p0-6p0-----4----6p0-7p0-6p0-----0----6p0-7p0-6p0------7-6---7-6---7-6---7-6--|
G#|--4-7p0-----------7p0--4-7p0-----------7p0--0-7p0-----------7p0--------------------------|
C#|--4--------------------4--------------------0~-------------------------------------------|

x 2
D#|-----------------------------------------------------------------------------------------|
A#|-----------------------------------------------------------------------------------------|
F#|----------------------------------------------------------------9-----9-----9-----9------|
C#|--4----666-777-666-----4----666-777-666-----0----666-777-666------7-6---7-6---7-6---7-6--|
G#|--4-777-----------777--4-777-----------777--0-777-----------777--------------------------|
C#|--4--------------------4--------------------0--------------------------------------------|
       TTTTTT TTT TTTTTT    TTTTTT TTT TTTTTT    TTTTTT TTT TTTTTT
x 2
D#|-----------------------------------------------------------------------------------------|
A#|-----------------------------------------------------------------------------------------|
F#|----------------------------------------------------------------9-----9-----9-----9------|
C#|--4----6p0-7p0-6p0-----4----6p0-7p0-6p0-----0----6p0-7p0-6p0------7-6---7-6---7-6---7-6--|
G#|--4-7p0-----------7p0--4-7p0-----------7p0--0-7p0-----------7p0--------------------------|
C#|--4--------------------4--------------------0~-------------------------------------------|

Verse II (2:20 - 2:34)

Rhythm:
x 2
D#|-----------------------------------------------------------------------------------|
A#|-----------------------------------------------------------------------------------|
F#|----------------------------------------------------------9-----9-----9-----9------|
C#|--4~-------4~--------4~--------4~--------0~-------0~--------7-6---7-6---7-6---7-6--|
G#|--4~-------4~--------4~--------4~--------0~-------0~-------------------------------|
C#|--4~-------4~--------4~--------4~--------0~-------0~-------------------------------|


Lead:
x 2
D#|--17-----------------17------------------------------------------------------------|
A#|-----15-14----14-15-----15-14----14-15---15-14----15-14----15-14----15-14----------|
F#|-----------------------------------------------14-------14-------14-------14-------|
C#|-----------16-----------------16---------------------------------------------------|
G#|-----------------------------------------------------------------------------------|
C#|-----------------------------------------------------------------------------------|
     T  T  T  T  T  T   T  T  T  T  T  T     T  T T  T  T  T  T   T T  T   T


Interlude I (2:34 - 2:37)

Both guitars:

D#|-------------------------------------------|
A#|-------------------------------------------|
F#|----------6--------------------------------|
C#|--4---6h7---7-6--2-----6-7-6----0~---------|
G#|--4-x------------2-x-7-------7--0~---------|
C#|--4--------------2--------------0~---------|

Post-Interlude I (2:38 - 2:41)

Lead:

D#|-----------------------------------------------------|
A#|--14----15----14---------14----15----14--------------|
F#|-----------------------------------------------------|
C#|----16----16----16-14h16----16----16----16-14h16-----|
G#|-----------------------------------------------------|
C#|-----------------------------------------------------|

Verse III (2:42 - 2:57)

Rhythm:

D#|-----------------------------------------------------|
A#|-----------------------------------------------------|
F#|-----------------------------------------------------| x 4
C#|--4-4-4--0~------------------------------------------|
G#|--4-4-4--0~------------------------------------------|
C#|--4-4-4--0~------------------------------------------|
     . . .

Lead:

D#|-----------------------------------------------------|
A#|---------------14----15----14------------------------|
F#|-----------------------------------------------------| x 4
C#|--4-4-4--0~-------16----16----16-14h16---------------|
G#|--4-4-4--0~------------------------------------------|
C#|--4-4-4--0~------------------------------------------|
     . . .

Verse IV (2:58 - 3:08)


Both guitars:


D#|---------------------------------------------------|
A#|---------------------------------------------------|
F#|---------------------------------------------------|
C#|--4-4-4--------------------------------------------|
G#|--4-4-4--------------------------------------------|
C#|--4-4-4--------------------------------------------|
     . . .

D#|---------5----------4-------7--7------7--7---------|
A#|------5---5------5---5-------5--5------5--5--------|
F#|-------6----------6--------------------------------|
C#|--4-4--------4-4--------4-4-------4-4--------------|
G#|---------------------------------------------------|
C#|---------------------------------------------------|
     . .        . .        . .       . .

D#|------5-5----4-4-4-------5-5----4-4-4--------------|
A#|------5-5----5-5-5-------5-5----5-5-5--------------|
F#|------2-2----2-2-2-------2-2----2-2-2--------------|
C#|--000-----00--------0000-----00--------------------|
G#|--000-----00--------0000-----00--------------------|
C#|--000-----00--------0000-----00--------------------|
     ...     ..        ....     ..


Interlude II (3:08 - 3:13)


Both guitars:

D#|-----------------------------------------------------|
A#|-----------------------------------------------------|
F#|--7-7--6-6--6--6-7-9-7-6-----------------------------|
C#|---9-9--7-7--7----------7-7-7--6-6--6--6-7-9-7-6-----|
G#|---------------------------9-9--7-7--7-----------7---|
C#|-----------------------------------------------------|
     .... .... .. . . . . .. .... .... .. . . . . . .

Verse V (3:14 - 3:18)


Rhythm:

D#|-----------------------------------------------------|
A#|-----------------------------------------------------|
F#|-----------------------------------------------------| x 2
C#|--4-4-4--0~------------------------------------------|
G#|--4-4-4--0~------------------------------------------|
C#|--4-4-4--0~------------------------------------------|


Lead:

D#|-------------------7---------------------------------|
A#|-------------5-------5-------------------------------|
F#|---------------6-------6-----------------------------| x 2
C#|--4-4-4--0~------7-----------------------------------|
G#|--4-4-4--0~------------------------------------------|
C#|--4-4-4--0~------------------------------------------|


Verse VI (3:19 - 3:28)


Both guitars:

D#|---------5----------4-------7--7------7--7---------|
A#|------5---5------5---5-------5--5------5--5--------|
F#|-------6----------6--------------------------------|
C#|--4-4--------4-4--------4-4-------4-4--------------|
G#|---------------------------------------------------|
C#|---------------------------------------------------|
     . .        . .        . .       . .

D#|------5-5----4-4-4-------5-5----4-4-4--------------|
A#|------5-5----5-5-5-------5-5----5-5-5--------------|
F#|------2-2----2-2-2-------2-2----2-2-2--------------|
C#|--000-----00--------0000-----00--------------------|
G#|--000-----00--------0000-----00--------------------|
C#|--000-----00--------0000-----00--------------------|
     ...     ..        ....     ..

Interlude II (3:28 - 3:33)


Both guitars:

D#|-----------------------------------------------------|
A#|-----------------------------------------------------|
F#|--7-7--6-6--6--6-7-9-7-6-----------------------------|
C#|---9-9--7-7--7----------7-7-7--6-6--6--6-7-9-7-6-----|
G#|---------------------------9-9--7-7--7-----------7---|
C#|-----------------------------------------------------|
     .... .... .. . . . . .. .... .... .. . . . . . .


Outro (3:33 - 3:57)


Rhythm:

D#|-----------------------------------------------------|
A#|-----------------------------------------------------|
F#|-----------------------------------------------------| x 4
C#|--4-4-4--0~------------------------------------------|
G#|--4-4-4--0~------------------------------------------|
C#|--4-4-4--0~------------------------------------------|


Lead:

D#|-------------------7---------------------------------|
A#|-------------5-------5-------------------------------|
F#|---------------6-------6-----------------------------| x 4
C#|--4-4-4--0~------7-----------------------------------|
G#|--4-4-4--0~------------------------------------------|
C#|--4-4-4--0~------------------------------------------|


---------------------------------------------------------------------------

LEGEND

| /  Slide up
| \  Slide down
| h  Hammer-on
| p  Pull-off
| ~  Hold Note
| +  Harmonic
| x  Mute note
| .  Palm mute
| T  Tremelo Picking

            
            
Suggest correction
Creating personal tab
Creating personal tab
You can edit any tab online and save it as your Personal.

You can edit, replace or remove any tab part or add personal notes – all changes will be seen only by you.

Personal tabs can be accessed anytime from any device, even offline.
Learn more »
Give kudos to tab author, rate the tab!
1 2 3 4 5
comments
print report bad tab
5 comments total. Showing first comments.
0 reply
Nevermore1230 270 Jul 02, 2009 03:18 PM

Uhh.
I think the main riff is bouncing back and forth between the open E string and the four on the E string, and not hammer on pull offs.

0 reply
Nevermore1230 270 Jul 02, 2009 03:43 PM

Like this:

D|----------6---7---6---------------6---7---6---------------6---7---6-----|
A|------7---------------7---4---7---------------7---0---7---------------7-|
E|--4-4---4---4---4---4---4---4---4---4---4---4---4---0---0---0---0---0---|

Ending with:

G|--9-----9-----9-----9-----|
D|----7/6---6/7---6/7---6/7-|

Then just tremelo pick that same pattern for the second time except for the ending thing, like this:
G|----------------------------------------9-----9-----9-----9-----|
D|------6-7-6---------6-7-6-------6-7-6-----7/6---6/7---6/7---6/7-|
A|----7-------7--4--7-------7---7-------7-------------------------|
E|--4-------------------------0-----------------------------------|
T T T T T T T T T T T T T T T T T T

And then repeat the first pattern.

0 reply
$hab 687 Jul 03, 2009 01:08 PM

Maybe, but it's definitely not sliding between the 6th and 7th frets on the 4th string at the end; it's just alternate picking.

guest
You may want to rate the tab now too:
select rating
Wanna post a correction for this tab? Suggest correction