Oops, an error
Loading. Please wait.

Bulletproof Heart tab

version 5
version 5

Whole song

Interactive

283 views 1 this week
no commentswrite comment
1 2 3 4 5
3 more votes to show rating
add to favorites
×
Save as Personal and add changes to this tab that will be seen only by you. Learn more ›
×
You can save this tab as Personal to edit and correct it or add notes. All changes will be seen only by you. Learn more »
launch autoscroll
font size
0
reset
how to read this tab
guitar tuner
backing track
0:00
0:00
edit
Autoscroll
slow
fast
+/-
esc
set tempo
stop
Remember to tune down half a step.
INTRO:
eb|--15-15--15--15--15--15---etc until "Run away..."-------------------------|
Bb|---15--15--15--15--15--15-------------------------------------------------|
Gb|--------------------------------------------------------------------------|
Db|--------------------------------------------------------------------------|
Ab|--------------------------------------------------------------------------|
Eb|--------------------------------------------------------------------------|
When Gerard sings "Run away, like it was yesterday.....", play the chords: Em, G, C and then
"And we could Run away, Run away from here"
eb|-----------0---------0---------------------------------------------------|
Bb|-----------6---------8---------------------------------------------------|
Gb|-----------0---------0---------------------------------------------------|
Db|-----------5---------7---------------------------------------------------|
Ab|-----------6---------8---------------------------------------------------|
Eb|-------------------------------------------------------------------------|

Both Guitars, main  riff:
eb|-------------------------------------77777---------------------------------|
Bb|-------------------------------------99999---------------------------------|
Gb|-------7-55555-777-------7-55555-777-99999-7-55555-777---------------------|
Db|-55555-7-55555-777-55555-7-55555-777-99999-7-55555-777-55555-4-5-----------|
Ab|-55555-5-33333-555-55555-5-33333-555-77777-5-33333-555-55555-4-5-----------|
Eb|-33333-------------33333-------------------------------33333-2-3-----------|

Guitar 1 Verse:
eb|--------------------------------------------------------------|
Bb|----8-8-8---8-8-8-7-8-----------------------------------------|
Gb|---0-0-0-7-5-5-5----------------------------------------------|
Db|--------------------------------------------------------------|
Ab|--------------------------------------------------------------|
Eb|--------------------------------------------------------------|X2
Guitar 1 Verse part 2:
eb|--------------------------------------------------------------|
Bb|----8-8-8---8-8-8-7-8-----8-8-8-7-8---------------------------|
Gb|---9-9-9-7-5-5-5---------0-0-0--------------------------------|
Db|--------------------------------------------------------------|
Ab|--------------------------------------------------------------|
Eb|--------------------------------------------------------------|


Guitar 2 Verse is the main riff but palm-muted
THEN:
Both Guitars, verse part 2:
eb|---------------------------------------77777777----------------------------|
Bb|---------------------------------------99999999----------------------------|
Gb|----------55555-777----------55555-777-99999999-55555-777------------------|
Db|-55555555-55555-777-55555555-55555-777-99999999-55555-777-55555-4-5-4------|
Ab|-55555555-33333-555-55555555-33333-555-77777777-33333-555-55555-4----------|
Eb|-33333333-----------33333333------------------------------33333-2----------|

Pre-chorus: 
eb|--0--3-2----3-0-3-2-----2-0-3-2----3-------------------------|
Bb|--0-----3/5-0-1----3/5--3-0----3/5-0-------------------------|
Gb|--0---------2-0---------2-0--------2-------------------------|
Db|--2---------0-2---------0-2--------0-------------------------|
Ab|--2---------0-3---------X-2--------0-------------------------|
Eb|--0---------2-X---------X-0--------2-------------------------|


Then Guitar 1: Palm-Muted!
eb|---------------------------------------------------------------------------|
Bb|---------------------------------------------------------------------------|
Gb|-55555555-77777777---------------------------------------------------------|
Db|-55555555-77777777---------------------------------------------------------|
Ab|-33333333-55555555---------------------------------------------------------|
Eb|---------------------------------------------------------------------------|
P.M..................

Guitar 2
eb|--------------------|
Bb|--------------------|
Gb|-5~--7~-------------|
Db|-5~--7~-------------|
Ab|-3~--5~-------------|
Eb|--------------------|


Both Guitars, Chorus: 
eb|---------------------------------------------------------------------------|
Bb|---------------------------------------------------------------------------|
Gb|--------------------------------5555-5555555555555555-77777777-99999999----|
Db|-555555555555-5555-222222222222-5555-5555555555555555-77777777-99999999----|
Ab|-555555555555-5555-222222222222-2222-3333333333333333-55555555-66666666----|
Eb|-333333333333-2222-000000000000--------------------------------------------|

eb|---------------------------------------------------------------------------|
Bb|---------------------------------------------------------------------------|
Gb|-999999999999------------------------5555555555555555-88888888-10101010----|
Db|-999999999999-5555-5555555555555555--5555555555555555-88888888-10101010----|
Ab|-777777777777-5555-5555555555555555--3333333333333333-66666666-88888888----|
Eb|--------------2222-3333333333333333----------------------------------------|

Guitar 1 Solo: For beginning part use pick on G string and finger on E to get the right sound and speed.
eb|----7--7--5--3--------------17b17br-15--15-20b20br 19-----------------------------|
Bb|--------------------------------------15------------------------------------------|
Gb|---7--7--5--4---5~-4--------------------------------------------------------------|
Db|---------------------5------------------------------------------------------------|
Ab|----------------------------------------------------------------------------------|
Eb|----------------------------------------------------------------------------------|

eb|--15p12----------------------------------17b17br-15h17p15--15------------------|
Bb|--------15p12h15p12-------15-13-12-----------------------17--------------------|
Gb|-------------------14p12----------14-12----------------------------------------|
Db|-------------------------------------------------------------------------------|
Ab|-------------------------------------------------------------------------------|
Eb|-------------------------------------------------------------------------------|
Guitar 2 plays main riff behind this

Guitar 1 Verse:
eb|--------------------------------------------------------------|
Bb|----8-8-8---8-8-8-7-8-----------------------------------------|
Gb|---0-0-0-7-5-5-5----------------------------------------------|
Db|--------------------------------------------------------------|
Ab|--------------------------------------------------------------|
Eb|--------------------------------------------------------------|X2
Guitar 1 Verse part 2:
eb|--------------------------------------------------------------|
Bb|----8-8-8---8-8-8-7-8-----8-8-8-7-8---------------------------|
Gb|---9-9-9-7-5-5-5---------0-0-0--------------------------------|
Db|--------------------------------------------------------------|
Ab|--------------------------------------------------------------|
Eb|--------------------------------------------------------------|


Guitar 2 Verse is the main riff but palm-muted
THEN:
Both Guitars, verse part 2:
eb|---------------------------------------77777777----------------------------|
Bb|---------------------------------------99999999----------------------------|
Gb|----------55555-777----------55555-777-99999999-55555-777------------------|
Db|-55555555-55555-777-55555555-55555-777-99999999-55555-777-55555-4-5-4------|
Ab|-55555555-33333-555-55555555-33333-555-77777777-33333-555-55555-4----------|
Eb|-33333333-----------33333333------------------------------33333-2----------|

Pre-chorus: 
eb|--0--3-2----3-0-3-2-----2-0-3-2----3-------------------------|
Bb|--0-----3/5-0-1----3/5--3-0----3/5-0-------------------------|
Gb|--0---------2-0---------2-0--------2-------------------------|
Db|--2---------0-2---------0-2--------0-------------------------|
Ab|--2---------0-3---------X-2--------0-------------------------|
Eb|--0---------2-X---------X-0--------2-------------------------|


Then Guitar 1: Palm-Muted!
eb|---------------------------------------------------------------------------|
Bb|---------------------------------------------------------------------------|
Gb|-55555555-77777777---------------------------------------------------------|
Db|-55555555-77777777---------------------------------------------------------|
Ab|-33333333-55555555---------------------------------------------------------|
Eb|---------------------------------------------------------------------------|
P.M..................

Guitar 2
eb|--------------------|
Bb|--------------------|
Gb|-5~--7~-------------|
Db|-5~--7~-------------|
Ab|-3~--5~-------------|
Eb|--------------------|


Both Guitars, Chorus: 
eb|---------------------------------------------------------------------------|
Bb|---------------------------------------------------------------------------|
Gb|--------------------------------5555-5555555555555555-77777777-99999999----|
Db|-555555555555-5555-222222222222-5555-5555555555555555-77777777-99999999----|
Ab|-555555555555-5555-222222222222-2222-3333333333333333-55555555-66666666----|
Eb|-333333333333-2222-000000000000--------------------------------------------|

eb|---------------------------------------------------------------------------|
Bb|---------------------------------------------------------------------------|
Gb|-999999999999------------------------5555555555555555-88888888-10101010----|
Db|-999999999999-5555-5555555555555555--5555555555555555-88888888-10101010----|
Ab|-777777777777-5555-5555555555555555--3333333333333333-66666666-88888888----|
Eb|--------------2222-3333333333333333----------------------------------------|


Bridge/breakdown:
Octaves (very quiet):
eb|---------------------3------------------------------------------------------|
Bb|---------------------3------------------------------------------------------|
Gb|--12\-8/-12\-8-7\-4--0------------------------------------------------------|
Db|---------------------0------------------------------------------------------|
Ab|--10\-6/-10\-6-5\-2--2------------------------------------------------------|
Eb|---------------------3------------------------------------------------------|

When vocals come in:
eb|--------------------------------------------------------------------------|
Bb|--------------------------------------------------------------------------|
Gb|------------8-----------8--------3--------8--10---------------------------|
Db|-----5----8------5----8--------3-------3--8--10---------------------------|
Ab|---5----6------5----6-----2--1-------3----6--8----------------------------|
Eb|-3-----------3---------------------1--------------------------------------|

Then when it builds up: Both Guitars:
eb|-------------------------------------------------------------------------------------|
Bb|-------------------------------------------------------------------------------------|
Gb|----------88888888----------888888----33333333-----------|This bit 3 times-|---------|
Db|-55555555-88888888-55555555-888888----33333333-33333333--|88888888-10101010|---------|
Ab|-55555555-66666666-55555555-666666--2-11111111-33333333--|88888888-10101010|---------|
Eb|-33333333----------33333333--------------------11111111--|66666666-88888888|---------|x2



Chorus variation:

Both Guitars:
eb|---------------------------------------------------------------------------|
Bb|---------------------------------------------------------------------------|
Gb|---------------------------------4444-5555555555555555-77777777-88888888---|
Db|---555555-4444------------222222-4444-5555555555555555-77777777-88888888---|
Ab|---555555-4444------------222222-2222-3333333333333333-55555555-66666666---|
Eb|---333333-2222------------000000-------------------------------------------|
     
eb|-----------------------------------------------------------------|
Bb|-----------------------------------------------------------------|
Gb|-999999999999-7777-555555555555-7777----------44444444-----------|
Db|-999999999999-7777-555555555555-7777-77777777-44444444-----------|
Ab|-777777777777-5555-333333333333-5555-77777777-22222222-----------|
Eb|-------------------------------------55555555--------------------|
            
eb|--------------------------------------------------------------------------|
Bb|--------------------------------------------------------------------------|
Gb|--55555555-77777-7--------------------------------------------------------|
Db|--55555555-77777-7--------------------------------------------------------|
Ab|--33333333-55555-5--------------------------------------------------------|
Eb|--------------------------------------------------------------------------|

on first C5 chord in chorus:
Guitar 3:
eb|----------------------------------|
Bb|-10-10-13-13-12-12-13-13----------|
Gb|----------------------------------|
Db|----------------------------------|
Ab|----------------------------------|
Eb|----------------------------------|X4
Then in the second half of the chorus:
eb|-------------------------------------------------------------------------------|
Bb|--5-5-8-8-7-7-8-8-X5-then:-7-7-10-10-8-8-10-10--8-8-12-12-10-10-12-12----------|
Gb|-------------------------------------------------------------------------------|
Db|-------------------------------------------------------------------------------|
Ab|-------------------------------------------------------------------------------|
Eb|-------------------------------------------------------------------------------|

eb|-----------------------------------------------------16----16----16----16------|
Bb|-12-12-12-12-12-12-12-12-15-15-15-15-15-15-15-15-18br--18br--18br--18br--------|
Gb|-------------------------------------------------------------------------------|
Db|-------------------------------------------------------------------------------|
Ab|-------------------------------------------------------------------------------|
Eb|-------------------------------------------------------------------------------|

Both Guitars, outro/main riff varient:
eb|--------------------------------------------------------------------|
Bb|--------------------------------------------------------------------|
Gb|-------7-55555-777-------7-55555-777-99999-7-55555-777--------------|
Db|-55555-7-55555-777-55555-7-55555-777-99999-7-55555-777-5~-----------|
Ab|-55555-5-33333-555-55555-5-33333-555-77777-5-33333-555-5~-----------|
Eb|-33333-------------33333-------------------------------3~-----------|

Guitar 3:
eb|-15-15-15-15-15-15-15-15-15-15-15-|
Bb|----------------------------------|
Gb|----------------------------------|
Db|----------------------------------|
Ab|----------------------------------|
Eb|----------------------------------|Repeat until end.
************************************

| /   slide up
| \   slide down
| h   hammer-on
| p   pull-off
| ~   vibrato
| +   harmonic
| x   Mute note
| b   Bend
| pb  Pre-bend
| br  Bend release
| pbr Pre-bend release
| brb Bend release bend

************************************

            
            
Suggest correction
Creating personal tab
Creating personal tab
You can edit any tab online and save it as your Personal.

You can edit, replace or remove any tab part or add personal notes – all changes will be seen only by you.

Personal tabs can be accessed anytime from any device, even offline.
Learn more »
Give kudos to tab author, rate the tab!
1 2 3 4 5
comments
print report bad tab
guest
You may want to rate the tab now too:
select rating
Wanna post a correction for this tab? Suggest correction