Oops, an error
Loading. Please wait.
We have an official Desolation Row tab made by UG professional guitarists. Check out the tab »
×
16,321 views 12 this week
7 commentsread comments
1 2 3 4 5
x 14
add to favorites
×
Save as Personal and add changes to this tab that will be seen only by you. Learn more ›
×
You can save this tab as Personal to edit and correct it or add notes. All changes will be seen only by you. Learn more »
launch autoscroll
font size
0
reset
guitar tuner
edit
Autoscroll
slow
fast
+/-
esc
set tempo
stop
Author
My Chemical Romance
Desolation Row

This tab was fairly easy to work out, and it's really easy to play too
The one thing that you may find a tiny bit hard is the changes from chorus to bridge on 
couple of them.
Especially the outro


Intro
|--------------|
|--------------|
|--------------|
|-0~-0~--0-0-0-|

Verse
|-------------------------------------------------------------------|
|-------------------------------------------------------------------|
|------------------00000000--------222222222222222200000000---------| X2
|-00000000000000000--------00000000------------------------00000000-|

Chorus
|----------------------------------------------------------|
|----------------------------------------------------------|
|-0000000000000000--------00000000000000002222222200000000-|
|-----------------00000000---------------------------------|


Bridge 1
|-------------------------------|
|-------------------------------|
|-7/9-9-9-9-7/9-9-9-9-7/9-9-9-9-|
|-------------------------------|


Verse
|-------------------------------------------------------------------|
|-------------------------------------------------------------------|
|------------------00000000--------222222222222222200000000---------| X2
|-00000000000000000--------00000000------------------------00000000-|

Chorus
|----------------------------------------------------------|
|----------------------------------------------------------|
|-0000000000000000--------00000000000000002222222200000000-|
|-----------------00000000---------------------------------|


Bridge 2
|---------------------------------------------|
|---------------------------------------------|
|-777766664444222277779-9-9-91111111112121212-|
|---------------------------------------------|

Solo
|-------------------------------------------------------------------|
|-------------------------------------------------------------------|
|------------------00000000--------222222222222222200000000---------| X2
|-00000000000000000--------00000000------------------------00000000-|

Verse
|-------------------------------------------------------------------|
|-------------------------------------------------------------------|
|------------------00000000--------222222222222222200000000---------| X2
|-00000000000000000--------00000000------------------------00000000-|

Chorus
|----------------------------------------------------------|
|----------------------------------------------------------|
|-0000000000000000--------00000000000000002222222200000000-|
|-----------------00000000---------------------------------|

Outro
|----------------|
|----------------|
|--------------0-|
|-0~-0~--0-0-0---|

|-------------------------|
|-------------------------|
|-------------------------|
|-0~-0~--0-0-0--000-000-0-|

            
            
Suggest correction
Creating personal tab
Creating personal tab
You can edit any tab online and save it as your Personal.

You can edit, replace or remove any tab part or add personal notes – all changes will be seen only by you.

Personal tabs can be accessed anytime from any device, even offline.
Learn more »
comments
print report bad tab
7 comments total. Showing first comments.
0 reply
Slipleaf 10 Feb 06, 2009 04:41 PM

Measures? I'm such a loser, I can never figure out how to play a song with tabs without the measure listed. So if you, or someone, could add in the measures, I'd love you forever. Thanks! :]

0 reply
TommyGun91 903 Feb 07, 2009 01:41 AM

You mean how many times to play each note?
Ive just woken up so I'm a still half asleep haha.

0 reply
MyChemChick 10 Feb 07, 2009 08:41 AM

In bridge 2..are they 1's and 2's....or 11's and 12's?

guest
You may want to rate the tab now too:
select rating
Wanna post a correction for this tab? Suggest correction