Oops, an error
Loading. Please wait.

Destroya bass

version 2
version 2

Whole song

  • I've altered it a little to make is easier for begginners to play.

Interactive

2,373 views 15 this week
no commentswrite comment
1 2 3 4 5
x 7
add to favorites
×
Save as Personal and add changes to this tab that will be seen only by you. Learn more ›
×
You can save this tab as Personal to edit and correct it or add notes. All changes will be seen only by you. Learn more »
launch autoscroll
font size
0
reset
guitar tuner
edit
Autoscroll
slow
fast
+/-
esc
set tempo
stop
Author
Difficulty
A couple of people requested tabs for this song on my youtube channel so I'm posting them up here.
Pretty easy song to learn, standard tuning.
Enjoy!

Check out my bass cover of this song!

http://www.youtube.com/watch?v=TBVoCBsOGqU

Check out my channel for more covers!

http://www.youtube.com/user/chrisistheazn

Intro

   No Bass

Verse 1 (Bass comes in at 0:50)

G|---------------------------------------------------------------------|
D|---------------------------------------------------------------------|
A|-----------------------------------------------------5-7-5-----------|
E|-5h7-7-7-7-7-5h7-7-7-7-7-5h7-7-7-5h7-7-7-7-7-5h7-7-7-------7-5-------|

G|---------------------------------------------------------------------|
D|---------------------------------------------------------------------|
A|---------------------------------------------------------X-X-X-X-----|
E|-5h7-7-7-7-7-5h7-7-7-7-7-5h7-7-7-5h7-7-7-7-7-5h7-7-7-7-7-------------|

G|---------------------------------------------------------------------|
D|---------------------------------------------------------------------|
A|-----------------------------------------------------5-7-5-----------|
E|-5h7-7-7-7-7-5h7-7-7-7-7-5h7-7-7-5h7-7-7-7-7-5h7-7-7-------7-5-------|

G|---------------------------------------------------------------------|
D|---------------------------------------------------------------------|
A|-----------------------------------------------------5-7-5-----------|
E|-5h7-7-7-7-7-5h7-7-7-7-7-5h7-7-7-5h7-7-7-7-7-5h7-7-7-----------------|

Chorus 1

G|---------------------------------------------------------------------|
D|---------------------------------------------------------------------|
A|---------------------------------------------------------------------|
E|-7-7-7-7-7-7-7-7-7-7-7-7-7-7-7-7-9-9-9-9-9-9-9-9-9-9-9-9-9-9-9-9-----|

G|---------------------------------------------------------------------|
D|---------------------------------------------------------------------|
A|---------------------------------------------------------------------|
E|-10-10-10-10-10-10-10-10-10-10-10-10-10-10-10-10---------------------|

G|---------------------------------------------------------------------|
D|---------------------------------------------------------------------|
A|-7-7-7-7-7-7-7-7-9-9-9-9-12-12-12-12---------------------------------|
E|---------------------------------------------------------------------|

G|---------------------------------------------------------------------|
D|---------------------------------------------------------------------|
A|---------------------------------------------------------------------|
E|-7-7-7-7-7-7-7-7-7-7-7-7-7-7-7-7-9-9-9-9-9-9-9-9-9-9-9-9-9-9-9-9-----|

G|---------------------------------------------------------------------|
D|---------------------------------------------------------------------|
A|---------------------------------------------------------------------|
E|-10-10-10-10-10-10-10-10-10-10-10-10-10-10-10-10---------------------|

G|---------------------------------------------------------------------|
D|---------------------------------------------------------------------|
A|-7-7-7-7-7-7-7-7-9-9-9-9-12-12-12-12---------------------------------|
E|---------------------------------------------------------------------|

After-Chorus

   No Bass

Verse 2

   Same as Verse 1

Chorus 2 Part 1
  
   Same as Chorus 1

Chorus 2 Part 2

G|---------------------------------------------------------------------|
D|---------------------------------------------------------------------|
A|---------------------------------------------------------------------|
E|-3-3-3-3-3-3-3-3-3-3-3-3-3-3-3-3-5-5-5-5-5-5-5-5-5-5-5-5-5-5-5-5-----|

G|---------------------------------------------------------------------|
D|---------------------------------------------------------------------|
A|---------------------------------5-5-5-5-5-5-5-5---------------------|
E|-7-7-7-7-7-7-7-7-7-7-7-7-7-7-7-7-----------------5-5-5-5-5-5-5-5-----|

G|---------------------------------------------------------------------|
D|---------------------------------------------------------------------|
A|---------------------------------------------------5-5-5-5-5-5-5-----|
E|-3-3-3-3-3-3-3-3-3-3-3-3-3-3-3-3-5-5-5-5-5-5-5-5-5-------------------|

Bridge (Bass comes in at 2:53)

G|---------------------------------------------------------------------|
D|---------------------------------------------------------------------|
A|-----------------------------------------------------5-7-5-----------|
E|-5h7-7-7-7-7-5h7-7-7-7-7-5h7-7-7-5h7-7-7-7-7-5h7-7-7-------7-5-------|

G|---------------------------------------------------------------------|
D|---------------------------------------------------------------------|
A|---------------------------------------------------------5-5-5-------|
E|-5h7-7-7-7-7-5h7-7-7-7-7-5h7-7-7-5h7-7-7-7-7-5h7-7-7-7-7-------------|

G|---------------------------------------------------------------------|
D|---------------------------------------------------------------------|
A|-----------------------------------------------------5-7-5-----------|
E|-5h7-7-7-7-7-5h7-7-7-7-7-5h7-7-7-5h7-7-7-7-7-5h7-7-7-------7-5-------|

G|---------------------------------------------------------------------|
D|---------------------------------------------------------------------|
A|-----------------------------------------------------5-7-5-----------|
E|-5h7-7-7-7-7-5h7-7-7-7-7-5h7-7-7-5h7-7-7-7-7-5h7-7-7-----------------|

Chorus 3 Part 1

   Same as Chorus 1

Chorus 3 Part 2

G|---------------------------------------------------------------------|
D|---------------------------------------------------------------------|
A|---------------------------------------------------------------------|
E|-3-3-3-3-3-3-3-3-3-3-3-3-3-3-3-3-5-5-5-5-5-5-5-5-5-5-5-5-5-5-5-5-----|

G|---------------------------------------------------------------------|
D|---------------------------------------------------------------------|
A|---------------------------------5-5-5-5-5-5-5-5---------------------|
E|-7-7-7-7-7-7-7-7-7-7-7-7-7-7-7-7-----------------5-5-5-5-5-5-5-5-----|

G|---------------------------------------------------------------------|
D|---------------------------------------------------------------------|
A|---------------------------------------------------------------------|
E|-3-3-3-3-3-3-3-3-3-3-3-3-3-3-3-3-5-5-5-5-5-5-5-5-5-5-5-5-5-5-5-5-----|

G|---------------------------------------------------------------------|
D|---------------------------------------------------------------------|
A|---------------------------------5-5-5-5-5-5-5-5---------------------|
E|-7-7-7-7-7-7-7-7-7-7-7-7-7-7-7-7-----------------5-5-5-5-5-5-5-5-----|

G|---------------------------------------------------------------------|
D|---------------------------------------------------------------------|
A|---------------------------------------------------------------------|
E|-3-3-3-3-3-3-3-3-3-3-3-3-3-3-3-3-5-5-5-5-5-5-5-5-5-5-5-5-5-5-5-5-----|

G|---------------------------------------------------------------------|
D|---------------------------------------------------------------------|
A|---------------------------------5-5-5-5-5-5-5-5---------------------|
E|-7-7-7-7-7-7-7-7-7-7-7-7-7-7-7-7-----------------5-5-5-5-5-5-5-5-----|

G|---------------------------------------------------------------------|
D|---------------------------------------------------------------------|
A|---------------------------------------------------5-5-5-5-5-5-5-----|
E|-3-3-3-3-3-3-3-3-3-3-3-3-3-3-3-3-5-5-5-5-5-5-5-5-5-------------------|




| /  slide up
| \  slide down
| h  hammer-on
| p  pull-off
| ~  vibrato
| +  harmonic
| x  Mute note

            
            
Suggest correction
Creating personal tab
Creating personal tab
You can edit any tab online and save it as your Personal.

You can edit, replace or remove any tab part or add personal notes – all changes will be seen only by you.

Personal tabs can be accessed anytime from any device, even offline.
Learn more »
comments
print report bad tab
guest
You may want to rate the tab now too:
select rating
Wanna post a correction for this tab? Suggest correction