Oops, an error
Loading. Please wait.
We have an official Disenchanted tab made by UG professional guitarists. Check out the tab »
×
6,277 views 120 this week
2 commentsread comments
1 2 3 4 5
x 22
add to favorites
×
Save as Personal and add changes to this tab that will be seen only by you. Learn more ›
×
You can save this tab as Personal to edit and correct it or add notes. All changes will be seen only by you. Learn more »
launch autoscroll
font size
0
reset
transpose
0
reset
display chords
guitar tuner
edit
Autoscroll
slow
fast
+/-
esc
set tempo
stop
Author
Difficulty
Strumming
There is no strumming pattern for this song yet. and get +5 IQ
*Intro Riff*

e|------------------------------------------|
B|--3---3---3-------------------------------|
G|----2---2---2--0---0---0---0--2--0--------|
D|-----------------4---4---4---------4------|
A|------------------------------------------|
E|------------------------------------------| << Repeat 3 times

e|------------------------------------------|
B|--3---3---3-------------------------------|
G|----2---2---2--0---0---0---0--------------|
D|-----------------4---4---4---4--2--0------|
A|------------------------------------------|
E|------------------------------------------|

*Repeat intro riff for first verse*

[Verse]
Well I was there on the day
They sold the cause for the queen,
And when the lights all went out
We watched our lives on the screen.
I hate the ending myself,
But it started with an alright scene.

           D
It was the roar of the crowd
That gave me heartache to sing.
         Bm
It was a lie when they smiled
And said, "you won't feel a thing"
          G 
And as we ran from the cops
                              A
We laughed so hard it would sting

Yeah yeah, oh

[Pre Chorus]
Bm              Em
   If I'm so wrong (so wrong, so wrong)
             A                 D                A      Bm
How can you listen all night long? (night long, night long)
                   G
Now will it matter after I'm gone?
            A
Because you never learn a goddamned thing.

[Chorus]
              D
You're just a sad song with nothing to say
        Bm
About a lifelong wait for a hospital stay
            Em
Well if you think that I'm wrong,
                          A
This never meant nothing to ya

[Verse]
           D
I spent my high school career
Spit on and shoved to agree
         Bm
So I can watch all my heroes
Sell a car on TV
              G
Bring out the old guillotine
                            A
We'll show them what we all mean.

Yeah yeah, oh

[Pre Chorus]
Bm             Em
   If I'm so wrong (so wrong, so wrong)
             A                             D     A     Bm
How can you listen all night long? (night long, night long)
                        G
Now will it matter long after I'm gone?
            A
Because you never learn a goddamned thing.

[Chorus]
              D
You're just a sad song with nothing to say
        Bm
About a lifelong wait for a hospital stay
           Em
And if you think that I'm wrong,
                          A
This never meant nothing to ya

*Bridge is all power chords*

  So go,     go  away
just go,     run away,      but where did you 
e|------------------------------------------|
B|------------------------------------------|
G|---7--7----7---9--10----------------------|
D|---7--7----7---9--10--8-------------------|
A|---5--5----5---7--8---8-------------------|
E|----------------------6-------------------|

   run to? And where did you hide? Go find another way, price you pay
e|----------------------------------------------------------------------------|
B|----------------------------------------------------------------------------|
G|--7--7---7---6-----6-------6--4--4-------4----------------------------------|
D|--7--7---7---6-----6-------6--4--4-------4-7-7---7-5-------------7----------|
A|--5--5---5---4-----4-------4--2--2-------2-7-7---7-5-------------7----------|
E|-------------------------------------------5-5---5-3-------------5----------|
                                                     ^strumx8      ^strumx8

  D    Bm   G
Woah, woah, woah
 A
Woah, woah, woah

[Chorus]
              D
You're just a sad song with nothing to say
        Bm
About a lifelong wait for a hospital stay
           Em
And if you think that I'm wrong,
                          A
This never meant nothing to ya, come on
              D
You're just a sad song with nothing to say
        Bm
About a lifelong wait for a hospital stay
            Em
Well if you think that I'm wrong,
                          A
This never meant nothing to ya

[Outro]
At all, at all, at all, at all...
*repeat intro riff* D/A

            
            
Suggest correction
Creating personal tab
Creating personal tab
You can edit any tab online and save it as your Personal.

You can edit, replace or remove any tab part or add personal notes – all changes will be seen only by you.

Personal tabs can be accessed anytime from any device, even offline.
Learn more »
comments
print report bad tab
2 comments total.
+3 reply
mollyhayes234 10 May 14, 2017 02:53 PM

whats the strumming pattern?

0 reply
rodrigues.joshr 10 Jun 04, 2017 01:30 AM

rock

guest
You may want to rate the tab now too:
select rating
Wanna post a correction for this tab? Suggest correction